Song name
# A B C D E F G H I J K L M N O P Q R S T U V W X Y Z

Alkaline Trio - Emma tab

Emma

Intro
E---------------------------|
B---------------------------|
G-------------2----4--------|
D---2---------2----4--------|
A---2---------0----2--------| x 2
E---0-----------------------|


Verse - Palm Muted
E--------------------------------------------|
B--------------------------------------------|
G----------------------22222222---44444444---|
D---2222222222222222---22222222---44444444---|
A---2222222222222222---00000000---22222222---| x 4
E---0000000000000000-------------------------|

Chorus
E--------------------------------------------------------|
B--------------------------------------------------------|
G---66666666--------------99999999-----------------------|
D---66666666---77777777---99999999---99999999------------|
A---44444444---77777777---77777777---99999999------------| x 2
E--------------55555555--------------77777777------------|

Fill In
E---------------------------|
B---------------------------|
G-------------2----4--------|
D---2---------2----4--------|
A---2---------0----2--------| x 2
E---0-----------------------|

Verse 2 - Palm Muted
E--------------------------------------------|
B--------------------------------------------|
G----------------------22222222---44444444---|
D---2222222222222222---22222222---44444444---|
A---2222222222222222---00000000---22222222---| x 4
E---0000000000000000-------------------------|

Chorus
E--------------------------------------------------------|
B--------------------------------------------------------|
G---66666666--------------99999999-----------------------|
D---66666666---77777777---99999999---99999999------------|
A---44444444---77777777---77777777---99999999------------| x 2
E--------------55555555--------------77777777------------|

Fill-In
E--------------------------------------------|
B--------------------------------------------|
G----------------------22222222---44444444---|
D---2222222222222222---22222222---44444444---|
A---2222222222222222---00000000---22222222---|
E---0000000000000000-------------------------|

Chorus
E--------------------------------------------------------|
B--------------------------------------------------------|
G---66666666--------------99999999-----------------------|
D---66666666---77777777---99999999---99999999------------|
A---44444444---77777777---77777777---99999999------------| x 4
E--------------55555555--------------77777777------------|

Outro
E--------------------------------------------|
B--------------------------------------------|
G----------------------22222222---44444444---|
D---2222222222222222---22222222---44444444---|
A---2222222222222222---00000000---22222222---|
E---0000000000000000-------------------------|
   With you and my dreams in the ground
Tap to rate this tab
# A B C D E F G H I J K L M N O P Q R S T U V W X Y Z