Song name
# A B C D E F G H I J K L M N O P Q R S T U V W X Y Z

Alkaline Trio - She Lied To The Fbi tab

ALKALINE TRIO
SHE LIED TO THE FBI
MY SHAME IS TRUE

INTRO
e|---------------------------------------|
B|--12--10--9--10--9---------------------|
G|---9---9--9---9--9---------------------|
D|---------------------------------------|
A|---------------------------------------|
E|---------------------------------------| 


VERSE
e|------------------|
B|------------------|
G|------2--4--------|
D|--2---2--4--------|
A|--2---0--2--------|
E|--0---------------|


CHORUS

"locked deep inside..."
e|------------------|
B|------------------|
G|-2--4-------------|
D|-2--4--2----------|
A|-0--2--2----------|
E|-------0----------| x3

"if i get out again..."
e|------------------|
B|------------------|
G|-6--2--4----------|
D|-6--2--4----------|
A|-4--0--2----------|
E|------------------| x1


VERSE

CHORUS

BRIDGE

"my mistake..."
e|------------------|
B|------------------|
G|-6-----2--4-------|
D|-6--2--2--4-------|
A|-4--2--0--2-------|
E|----0-------------| x3


e|-------------------|
B|-------------------|
G|-6-----4-----------|
D|-6--2--4-----------|
A|-4--2--2-----------|
E|----0--------------| x3



INTRO

VERSE 

END 

e|------------------|
B|------------------|
G|------------------|
D|-2----------------|
A|-2----------------|
E|-0----------------| x3
Tap to rate this tab
# A B C D E F G H I J K L M N O P Q R S T U V W X Y Z