Song name
# A B C D E F G H I J K L M N O P Q R S T U V W X Y Z

Alkaline Trio - Im Only Here To Disappoint tab

Alkaline Trio - I'm Only Here To Disappoint

Tabbed By: SpreadSomeLove
Standard Tuning

Intro (Lead Guitar)
e|----------------------------------------------------------------------------------|
B|9-------9---10--12-9--------14---12--10-9--------9---10--12-9--------17---16---12-|
G|----------------------------------------------------------------------------------|
D|6-------6---7---9--6--------11---9---7--6--------6---7---9--6--------14---13---9--|
A|----------------------------------------------------------------------------------|
E|----------------------------------------------------------------------------------|

Intro (Rhythm Guitar)
e|-------------------------------------|
B|-------------------------------------|
G|6--------2--------6--------9----8----|
D|6--------2--------6--------9----9----| 2x
A|4--------0--------4--------7----6----|
E|-------------------------------------|

Verse
e|---------------------------------------------------------------------------|
B|---------------------------------------------------------------------------|
G|6--------2--------6---------9-------------------------2----6-6-6-6-6-6-6-6-|
D|6--------2--------6---------9----4---6--------4-------2----6-6-6-6-6-6-6-6-| 2x
A|4--------0--------4---------7----4---6--------4-------0----4-4-4-4-4-4-4-4-|
E|---------------------------------2---4--------2----------------------------|

Pre-Chorus
e|-----------------|
B|-----------------|
G|2---2---4--9-8-4-|
D|2---2---4--9-9-4-|
A|0---0---2--7-6-2-|
E|-----------------|

Chorus
e|------------------------------------------------------------------------|
B|------------------------------------------------------------------------|
G|6--6-2--2--4--4---------6--6-2--2--4--4---------6--6-2--2--4--4---------|
D|6--6-2--2--4--4-6---6---6--6-2--2--4--4-6---6---6--6-2--2--4--4-6---6---|
A|4--4-0--0--2--2-6---6---4--4-0--0--2--2-6---6---4--4-0--0--2--2-6---6---|
E|----------------4---4-------------------4---4-------------------4---4---|

e|----------------|
B|----------------|
G|6-6-6-6-6-6-6-6-| Repeat Entire
D|6-6-6-6-6-6-6-6-| Chorus 2x
A|4-4-4-4-4-4-4-4-|
E|----------------|

Repeat Intro

Repeat Verse

Repeat Pre-Chorus

Repeat Chorus

Bridge
e|--------------------------------------------------------------------|
B|--------------------------------------------------------------------|
G|---------2--------9------------------------2--------6---------------|
D|4--------2--------9---------------4--------2--------6---------------|
A|4--------0--------7---------------4--------0--------4---------------|
E|2---------------------------------2---------------------------------|

e|--------------------------------------|
B|--------------------------------------|
G|---------2------------------2---------|
D|4--------2--------4---------2---------|
A|4--------0--------4---------0---------|
E|2-----------------2-------------------|

Bridge (Clean Guitar)
e|-----------------------------------------------------------------------|
B|------------------5--------5------------------------9--------9---------|
G|------------------6------------6--------------------9------------9-----|
D|------------------6----------------6----------------9----------------9-|
A|-----------------------------------------------------------------------|
E|-----------------------------------------------------------------------|

e|------------------------------------------------------------|
B|------5--------------5--------------5--------------5--------|
G|--6------6---6---6------6---6---6------6---6---6------6---6-|
D|6---6------6---7---7------7---6---6------6---7---7------7---|
A|------------------------------------------------------------|
E|------------------------------------------------------------|

Final Pre-Chorus
e|----------------------------------------------------------------|
B|----------------------------------------------------------------|
G|--------------------------------4-4-4-4-4-4-4-4-4-4-4-4-4-4-4-4-|
D|6-6-6-6-6-6-6-6-6-6-6-6-6-6-6-6-4-4-4-4-4-4-4-4-4-4-4-4-4-4-4-4-|
A|6-6-6-6-6-6-6-6-6-6-6-6-6-6-6-6-2-2-2-2-2-2-2-2-2-2-2-2-2-2-2-2-|
E|4-4-4-4-4-4-4-4-4-4-4-4-4-4-4-4---------------------------------|

Final Chorus
e|------------------------------------------------------------------------|
B|------------------------------------------------------------------------|
G|6--6-2--2--4--4---------6--6-2--2--4--4---------6--6-2--2--4--4---------|
D|6--6-2--2--4--4-6---6---6--6-2--2--4--4-6---6---6--6-2--2--4--4-6---6---|
A|4--4-0--0--2--2-6---6---4--4-0--0--2--2-6---6---4--4-0--0--2--2-6---6---|
E|----------------4---4-------------------4---4-------------------4---4---|

e|----------------|
B|----------------|
G|6-6-6-6-6-6-6-6-|
D|6-6-6-6-6-6-6-6-|
A|4-4-4-4-4-4-4-4-|
E|----------------|

e|------------------------------------------------------------------------|
B|------------------------------------------------------------------------|
G|6--6-2--2--4--4---------6--6-2--2--4--4---------6--6-2--2--4--4---------|
D|6--6-2--2--4--4-6---6---6--6-2--2--4--4-6---6---6--6-2--2--4--4-6---6---|
A|4--4-0--0--2--2-6---6---4--4-0--0--2--2-6---6---4--4-0--0--2--2-6---6---|
E|----------------4---4-------------------4---4-------------------4---4---|

e|---------------|
B|---------------|
G|6-6-6-6-6-6-6--|
D|6-6-6-6-6-6-6--|
A|4-4-4-4-4-4-4--|
E|---------------|

Outro
e|------------------------------------------------------------|
B|------------------------------------------------------------|
G|6--6-4-6--6-4-6--6-4-6--6-4-6--6-4-6--6-4-6--6-4-6----------|
D|6--6-4-6--6-4-6--6-4-6--6-4-6--6-4-6--6-4-6--6-4-6----------|
A|4--4-2-4--4-2-4--4-2-4--4-2-4--4-2-4--4-2-4--4-2-4----------|
E|------------------------------------------------------------|

That's about it. Please rate and comment!
Tap to rate this tab
# A B C D E F G H I J K L M N O P Q R S T U V W X Y Z