Guitaretab - guitar tabs
Song name
# A B C D E F G H I J K L M N O P Q R S T U V W X Y Z

Alkaline Trio - Another Innocent Girl tab

Another Innocent Girl  by Alkaline Trio
Standard Tuning

Intro
e|-----|--------------------------------------|-----------|
B|-----|--------------------------------------|-----------|
G|--6--|--99999999-99999999-7777777777777777--|-----6--9--|
D|-----|--99999999-99999999-7777777777777777--|-X2-----9--|
A|-----|--77777777-66666666-5555555555555555--|--------7--|
E|-----|--------------------------------------|-----------|
              2nd time, play D ^ only 14 times 

Verse (1st half  no guitar)
e|-----------------------------|
B|-----------------------------|
G|--69--69--69----69--69--69---|
D|--------------------------7--|
A|-----------------------------|
E|-----------------------------|

Pre-Chorus
e|---------------------------------------|
B|---------------------------------------|
G|--------------------44444444-77777777--|
D|--44444444-22222222-44444444-77777777--| 
A|--44444444-22222222-22222222-55555555--|
E|--22222222-00000000--------------------|
pm  ........ ........
[ Tab from: http://www.guitaretab.com/a/alkaline-trio/35774.html ]
e|------------------------------|------------|-------------|
B|------------------------------|------------|-------------|
G|--------------------44444444--|--44444444--|--6/7-7/9-9--|
D|--44444444-22222222-44444444--|--44444444--|--x/x-x/x-x--|
A|--44444444-22222222-22222222--|--22222222--|--4/5-5/7-7--|
E|--22222222-00000000-----------|------------|-------------|
                                1st Pre-Chorus  2nd and 3rd Pre-Chorus

Chorus
e|------------------------------------|
B|------------------------------------|
G|--999999999999999-7777777777777777--|
D|--999999999999999-7777777777777777--| X2 
A|--777777777777777-5555555555555555--|
E|------------------------------------|

End
e|-------------------------------------|--------|
B|-------------------------------------|--------|
G|-------------------7777777777777777--|--------|
D|--2222222222222222-7777777777777777--|-X2--7--|
A|--2222222222222222-5555555555555555--|-----7--|
E|--0000000000000000-------------------|-----5--|

Songflow:

Intro
Verse
Pre-Chorus
Intro
Verse
Pre-Chorus
Chorus
Intro
Verse
Pre-Chorus
Chorus X2
End

And there you have it.
Related for Another Innocent Girl tab
Another Innocent Girl chords by Alkaline Trio