Song name
# A B C D E F G H I J K L M N O P Q R S T U V W X Y Z

Alkaline Trio - Cop tab

ALKALINE TRIO
COP
GODDAMNIT


INTRO - pick scraping
e|---------------------------------------------------------------|
B|---------------------------------------------------------------|
G|---------------------------------------------------------------|
D|---------------------------------------------------------------|
A|---------------------------------------------------------------|
E|---------------------------------------------------------------|

VERSE
e|---------------------------------------------------------------|
B|---------------------------------------------------------------|
G|-9-9-------9-9-------9-9-------9-9-------13-13-13-13-13-13-----| 
D|-7-7-------7-7-------7-7-------7-7-------13-13-13-13-13-13-----|
A|-0-0-------0-0-------0-0-------0-0-------11-11-11-11-11-11-----|
E|---------------------------------------------------------------|

CHORUS
e|---------------------------------------------------------------|
B|---------------------------------------------------------------|
G|-7777-----7777111199-77779991199999999-7-9---------------------|  
D|-77774422-7777111199-77779991199999999-7-9---------------------|
A|-55554422-5555-9-977-5555777-977777777-5-7---------------------|
E|-----2200------------------------------------------------------|

VERSE X 3

CHORUS X 2

OUTRO- work out rhythm
e|---------------------------------------------------------------|
B|---------------------------------------------------------------|
G|-9----9----9----7----6-----------------------------------------|
D|-7----9----x----x----x-----------------------------------------|
A|-0----7----7----5----4-----------------------------------------|
E|---------------------------------------------------------------|

Then end on
e|---------------------------------------------------------------|
B|---------------------------------------------------------------|
G|-9--9----------------------------------------------------------|
D|-7--7----------------------------------------------------------|
A|-0--0----------------------------------------------------------|
E|---------------------------------------------------------------|

For corrections email me at e_mericana@hotmail.com
Tap to rate this tab
# A B C D E F G H I J K L M N O P Q R S T U V W X Y Z