Song name
# A B C D E F G H I J K L M N O P Q R S T U V W X Y Z

Alkaline Trio - Pocket Knife Acoustic tab

Great song , its not online from what i could see so hey ! here ya go ,

  Intro
e|-----------------|
B|-----------------|
G|-----------------|
D|--6--6--6--6--6--|
A|--4--4--4--0--4--|
E|-----4--5--0-----| x2

verse

e|-----------------------|
B|-----------------------|
G|-----------------------|
D|--6-6-6-6-6-6-6-6-6-6--|
A|--4-4-4-4-4-4-4-4-4-4--|
E|------------4-4-5-5-5--| x4



e|-----------------------------|
B|-----------------------------|
G|-----------------------------|
D|--6-6-6----------------------|
A|--4-4-4--6-6-6--7-7-7--9-9-9-|
E|---------4-4-4--5-5-5--7-7-7-| x2


chorus

e|------------------------------|
B|------------------------------|
G|------------------------------|
D|--9----9----11----7-----------|
A|--7----9----11----7-----------|
E|--0----7----9-----5-----------|
     x8   x8    x8   x8            Repeat




Thats Basicly the go , Enjoy
Tab By Fatninjabitz
Tap to rate this tab
# A B C D E F G H I J K L M N O P Q R S T U V W X Y Z