Song name
# A B C D E F G H I J K L M N O P Q R S T U V W X Y Z

Alkaline Trio - Kiss You To Death tab

Song: Kiss You To Death
Band: Alkaline Trio     
Album: My Shame Is True
Year: 2013
Track No. 4
Company: Epitaph Records
Tabbed By: Aaron W
Cover video: Sugarpillcovers182 (Video on youtube)

NOTE: On this song and most of the album Skiba uses the same D-U-D-U-D strum 
pattern. Like strumming an acoustic. Also my first tab!

Intro/Verse

"I'm taking a ride out to your place"
E|---------------------------|
B|---------------------------|
G|-9-------4----------2---4--|
D|-9---2---4--X3------2---4--| X2 
A|-X---2---2----------0---2--|
E|-9---0---------------------|

Chorus
"Whoa-Ho-Ho, Kiss you to death to-night"
E|------------------------------------------|
B|------------------------------------------|
G|--9-----11----13------14------9------4----|
D|--X X6--X--X6--X--X6---X--X6--X--X6--X--X6| X2
A|--7-----9-----11------12------7------2----|
E|------------------------------------------|


Verse 
(Watch the vid for the chord changes)
E|-------------------------|
B|-------------------------|
G|-9------8---------9------|
D|-9-X14--9--X14----9-X14--|
A|-7------6---------7------|
E|-------------------------|

Bridge
E|------------------------------|
B|------------------------------|
G|-9------8----------11---------|
D|-9-X28--9--x14-X3--x-X6--pick-|
A|-7------6----------9----slide-|
E|------------------------------|

Outro
E|------------------------------|
B|-------------16---17--14---16-|
G|-13-14--16----X----X---X----X-|
D|--X--X---X---14---11--13---14-|
A|-11-12--14--------------------|
E|------------------------------|

Listen for accurate counts


End on
E|------------------------------|
B|------------------------------|
G|------------------------------|
D|--2---------------------------|
A|--2---------------------------|
E|--0---------------------------|

That's it! Enjoy!
again credit to Aaron W. for tabbing.
Tap to rate this tab
 
# A B C D E F G H I J K L M N O P Q R S T U V W X Y Z