Song name
# A B C D E F G H I J K L M N O P Q R S T U V W X Y Z

Alkaline Trio - Young Lover tab

Song: Young Lovers
Artist: Alkaline Trio
Album: My Shame Is true
Track No. 11
Release Year: 2013
Label: Epitaph/Heart and Skull
Tuning: Standard

Intro
E|------------------|
B|----------4-----4-|
G|--------5-----5---|	X2
D|------6-----5-----|
A|------------------|
E|------------------|

E|--------------------------|
B|--2-----------------------|
G|--2--x8-------------------|
D|--2-------6--------4------|
A|----------7--x8----4--x16-|
E|----------4--------2------|

Verse
E|--------------------|
B|--2~----------------|
G|--2~----------------|
D|--2~---6~---4~---2~-|
A|-------7~---4~---2~-|
E|-------4~---2~---0~-|

E|----------------------|
B|----------------------|
G|----------------6-----|
D|--6------2------4-x20-|
A|--7-x10--2-x10--4-----|
E|--4------0------------|
  ..PM.....PM.....PM. (gradual release on the PM) 

Chorus 
E|-------------------------------|
B|--2----------------------------|
G|--2--x8-------------------6----|
D|--2-------6--------4------4-x8-|
A|----------7--x8----4--x8--4----|
E|----------4--------2-----------|
	
Bridge
E|--X------X---------|
B|--X------3---------|
G|--X------4---------|
D|--4-x12--4-x12--x3-|
A|--2------2---------|
E|--X------X---------|
....PM.....PM.....

E|-------------|
B|-------------|
G|--6-4-2------|
A|--6-4-2-2~---|
D|--4-2-0-2~---|
E|--------0~---|

E|--X------X---------|
B|--X------3---------|
G|--X------4---------|
D|--4-x12--4-x12--x3-|
A|--2------2---------|
E|--X------X---------|
...PM.....PM.....

INTRO
VERSE
CHORUS
VERSE
CHORUS 
BRIDGE
CHORUS x2 


KEY
~= Hold
..PM..= Palm Mute
X=don't play
Tap to rate this tab
# A B C D E F G H I J K L M N O P Q R S T U V W X Y Z