Song name
# A B C D E F G H I J K L M N O P Q R S T U V W X Y Z

Alkaline Trio - Warbrain tab

Alkaline Trio
Warbrain

I'm pretty sure this is the FULL perfect way to play this song.


INTRO-

e--------------|-----------------------------------------|
B--13-~--~-----|----Scratch------------------------------|
G--13-~--~-----|-----down--------------------------------|
D--13-~--~-----|----strings.-----------------------------|
A--------------|-----------------------------------------|
E--------------|-----------------------------------------|

Sounds like some kind of chorus effect is used to get abit of feedback over the ringing 
the first notes, thats what i use anyway.

Main Riff -

Heavy Distortion
e---------------------------------------------------------|
B--7---7---7---7---7---7---7---7--------------------------|
G----4---4------------------------------------------------|  x2
D------------6---6---4---4---4---4------------------------|
A---------------------------------------------------------|
E---------------------------------------------------------|


Verse-

e----------------------------------------------|
B----------------------------------------------|
G--------------------4-4-4---------------------|
D--6-6-6----2-2-2----4-4-4----4-4-4-4-4--------|
A--6-6-6----2-2-2----2-2-2----4-4-4-4-4--------|
E--4-4-4----0-0-0-------------2-2-2-2-2--------|

(intro)


Chorus-

e------------------------------------------------|
B------------------------------------------------|
G------------------------------------------------|
D--2-2-2-2-2-2-2--6-6-6-6--4-4-4-4---------------|
A--2-2-2-2-2-2-2--6-6-6-6--4-4-4-4---------------|
E--0-0-0-0-0-0-0--4-4-4-4--2-2-2-2---------------|

Verse and intro a few more times then end on-

e-------|
B-------|
G-------|
D--2-~--|
A--2-~--|
E--0-~--|


Tony
angerisagift03@hotmail.com
Tap to rate this tab
# A B C D E F G H I J K L M N O P Q R S T U V W X Y Z