Song name
# A B C D E F G H I J K L M N O P Q R S T U V W X Y Z

Alkaline Trio - Song For Julie tab

#-----------------------------------------------------------------------------#
#-- File created with Instab - http://www.pconline.com/~smcarey/instab.html --#
#-----------------------------------------------------------------------------#

Author/Artist: Alkaline Trio
Title: Song for Julie
Transcribed by: Andrew Biles

This song is so quiet, well, the version I downloaded was, so it was quite
awkward to tab to say the least, but I had a go.  There's not really much to
explain about the tab, there's a lead part that comes in over the rhythm just
before one minute in, and then it gets heavier towards the end which is where
the last part comes in.

Standard tuning

|-------------------------------------------|-----------|
|-------------------------------------------|-----------|
|-5--3-------------------5--3--6--5---------|-8----6----|
|-6--6--5--6--5----6-----6--6--6--6--8----6-|-8----6----|
|-------6--6--3----4-----------------6----4-|-6----4----|
|-------------------------------------------|-----------|

 Lead - 0:57
|----------------------------------------------------------------------------|
|------------4---------4-------------------------------------------4---------|
|-/5-5---3h5---5-----5-----5h6-5------/8-8-6-6-5-5-3-3--/5-5---3h5---5-----5-|
|-/6---6---------6-6-----6-------/8-6-------------------/6---6---------6-6---|
|----------------------------------------------------------------------------|
|----------------------------------------------------------------------------|

------------------------------|
-4------------------8h9-8-----|
-----5h6-5------/8--------10--|
---6-------/8-6---------------|
------------------------------|
------------------------------|

 1:55
|------------------------|--------------------------------------------------|
|------------------------|--------------------------------------------------|
|-8-----6-----6-----6----|-10----8-----6----------8----------6-----8--6-----|
|-8-----6-----6-----6----|-10----8-----6----------8----------6-----8--6-----|
|-6-----4-----3-----4----|-8-----6-----4----------6----------4-----6--4-----|
|------------------------|--------------------------------------------------|
                      x2

any questions? andrewbiles@hotmail.com
Tap to rate this tab
# A B C D E F G H I J K L M N O P Q R S T U V W X Y Z