Song name
# A B C D E F G H I J K L M N O P Q R S T U V W X Y Z

Alkaline Trio - Enjoy Your Day tab

Help us improve GuitareTab! Take a short survey!
Artist: Alkaline Trio
Album: Goddamnit!
Song: Enjoy Your Day

I take no credit for this tab...It is completely the work of twisted_souls@hotmail.com 
not me. If you want to give someone credit that is where to look.


intro:
e|----------0------------------0------------------------------------0~--|
B|-----1---------3-1-------1-------3-1----------1-------------------1~--|
G|-------0-------------------0--------------------0---0----0-0------0~--|
D|----------------------------------------0---0-----3----3-----3----3~--|
A|-3-3---3-----3-------2-2---2---2----------3---------------------------|
E|--------------------------------------3-------------------------------|


e|----------------0-----------|-----------------------------------|
B|----------------x-----3-3-1-|-----------------1-----1-0---------|
G|--0-0-0-0-0-0-0-0-0-0-0-0-0-|-0-0-0-0-0-0-0-0-0-0-0-0-0---------|
D|--2-2-2-2-2-2-2-2-2-2-2-2-2-|-2-2-2-2-2-2-2-2-2-2-2-2-2---------|
A|--3-3-3-3-3-3-3-3-3-3-3-3-3-|-2-2-2-2-2-2-2-2-2-2-2-2-2---------|
E|----------------------------|-----------------------------------|


e|----------------------------------|-------------1---1-----1-1-----|
B|-----------------------1-----1-0--|-------------1---1-----1-1-----|
G|-----------------------0-----0-0--|-------------x---x-----x-x-----|
D|-0-0-0-0-0-0-0-0-0-0-0-0-0-0-0-0--|-3-3-3-3-3-3-3-3-3-3-3-3-3-----|
A|-2-2-2-2-2-2-2-2-2-2-2-2-2-2-2-2--|-3-3-3-3-3-3-3-3-3-3-3-3-3-----|
E|-3-3-3-3-3-3-3-3-3-3-3-3-3-3-3-3--|-1-1-1-1-1-1-1-1-1-1-1-1-1-----|


Chorus:
e|-------------------------------------------|----------10-------10----10--|
B|-------------------------------------------|-----------x--------x-----x--|
G|-----5-5---------7-7---------9-9-9-9-9-9-9-|-10-10-10-10-10-10-10-10-10--|
D|-5-5-5-5-5-5/7-7-7-7-7-7/9-9-9-9-9-9-9-9-9-|-10-10-10-10-10-10-10-10-10--|
A|-3-3-3-3-3-3/5-5-5-5-5-5/7-7-7-7-7-7-7-7-7-|--8--8--8--8--8--8--8--8--8--|
E|-------------------------------------------|-----------------------------|
Related for Enjoy Your Day tab