Song name
# A B C D E F G H I J K L M N O P Q R S T U V W X Y Z

Alkaline Trio - Back To Hell tab

-------------------------------------------------------------------------------
			    BACK TO HELL- Alkaline Trio
-------------------------------------------------------------------------------
This is a song off their new album Crimson.  Awesome chorus with the lyrics being traded 
between Matt and Dan.

Tabbed by:Taka
Email:californitaki721@yahoo.com
For the chorus, end of intro, and bridge, figure out the strumming...it's simple!

Tuning:Standard

Intro
e|---------------------------------------------------------------------------|
B|---------------------------------------------------------------------------|
G|-14-13-16-13-14-13-11-9-14-13-16-13-14-13-8-9-------6-7--------------------|
D|-X--X--X--X--X--X--X--X-X--X--X--X--X--X--X-X---X2--X-X-X3-----------------|
A|-12-11-14-11-12-11-9--7-12-11-14-11-12-11-6-7-------4-5--------------------|
E|---------------------------------------------------------------------------|

Verse
e|---------------------------------------------------------------------------|
B|---------------------------------------------------------------------------|
G|-9-7--------------------------------7-9---7-9------------------------------|
D|-X-X-----4--------------------2-4-2-7-9-4-7-9------------------------------|
A|-7-5-----4--------------------2-4-2-5-7-4-5-7------------------------------|
E|---------2--------------------0-2-0-----2----------------------------------|
  Like the pills in your hand...

Post Verse
e|---------------------------------------------------------------------------|
B|---------------------------------------------------------------------------|
G|---------------------------------------------------------------------------|
D|-4444---2------------------------------------------------------------------|
A|-4444---2---X3-------------------------------------------------------------|
E|-2222---0------------------------------------------------------------------|

Chorus
e|---------------------------------------------------------------------------|
B|---------------------------------------------------------------------------|
G|---7---9---------11--------------------------------------------------------|
D|-4-7-7-9-X2-Then-11--------------------------------------------------------|
A|-4-5-7-7---------9---------------------------------------------------------|
E|-2---5---------------------------------------------------------------------|

Verse 2 (Dan plays the verse here!!! :-P)
e|---------------------------------------------------------------------------|
B|---------------------------------------------------------------------------|
G|-9-7-----------------------------------------------------------------------|
D|-X-X-----4-----------------------------------------------------------------|
A|-7-5-----4-----------------------------------------------------------------|
E|---------2-----------------------------------------------------------------|
  Like the pills....

Bridge (2/4/4 0/2/2 played like post verse...then...)
e|---------------------------------------------------------------------------|
B|---------------------------------------------------------------------------|
G|---------13-14-13--------13-14-13-14-13-11---------------------------------|
D|-4-2-X3--X--X--X--4-2----X--X--X--X--X--X----------------------------------|
A|-4-2-----11-12-11-4-2-X3-11-12-11-12-11-9----------------------------------|
E|-2-0--------------2-0------------------------------------------------------|
 Toooold (Figure out strumming, not hard...)

Ending
e|---------------------------------------------------------------------------|
B|---------------------------------------------------------------------------|
G|---------------------------------------------------------------------------|
D|-4444244442~~~~~~~---------------------------------------------------------|
A|-4444244442~~~~~~~---------------------------------------------------------|
E|-2222022220~~~~~~~---------------------------------------------------------|

Aaaaand there you have it.  I'm really not sure about the chorus, but everything else 
almost positive is correct.  Please email me corrections you may have on the chorus, or 
other parts of the song.  It will be greatly appreciated.  Thanks, and enjoy!!!

Songflow:
Intro
Verse
Post Verse
Verse
Post Verse
Chorus
Post Verse
Verse 2
Post Verse
Chorus
Bridge
Post Verse
Chorus
Ending


| x  Mute note
Tap to rate this tab
 
# A B C D E F G H I J K L M N O P Q R S T U V W X Y Z