Song name
# A B C D E F G H I J K L M N O P Q R S T U V W X Y Z

Alkaline Trio - I Was A Prayer tab

----------------------------------------------------------------------------
                    I WAS A PRAYER - Alkaline Trio
----------------------------------------------------------------------------

Tabbed By: alfonzthemonkey
e-mail: alfonzothemonkey@hotmail.co.uk

Tuning: standard

Ok, there's a few tabs for this song but no-one seems to be able to get the intro right. 
here's my version of the intro and it sounds about right,
and it's better than all the other versions but just email me or leave a comment with 
corrections.

intro:
e|--------------------|
B|--------------------|
G|--------------------|
D|5~--------------5~--|
A|5~--------------5~--|
E|3~--------------3~--|

(the bit everyone gets wrong)
e|---------------------------|
B|---------------------------|
G|---------------------------|
D|---------------------------|
A|-55---57-5-3-2---2---3-2-3-|
E|----7----------0---0-------|

e|-----------------------------|
B|-----------------------------|
G|-----------------------------|
D|-----------------------------|
A|-55---57-5-3-2---2---3-2-3-5~|
E|----7----------0---0---------|

Cheers
Tap to rate this tab
# A B C D E F G H I J K L M N O P Q R S T U V W X Y Z