Song name
# A B C D E F G H I J K L M N O P Q R S T U V W X Y Z

Alkaline Trio - Fall Victim tab

ALKALINE TRIO
FALL VICTIM
CRIMSON

Work out strumming pattern in some parts of it, this is probably 90% correct

INTRO
e|----------------------------------|
B|----12----------------------------|
G|--9--9----------------------------|
D|--7-------------------------------| x
A|----------------------------------|
E|----------------------------------|

VERSE
e-----------------------------------|
b-----------------------------------|
g-66667777-99997766-77777777777777--|
d-44444444-77777777-77777777777777--|
a----------00000000-55555555555555--|
e-----------------------------------|

END OF VERSE
e|----------------------------------|
B|----------------------------------|
G|-----7--9--7----------------------|
D|--4--7--9--7----------------------| x 1
A|--4--5--7--5----------------------|
E|--2-------------------------------|

CHORUS
    (i)        (ii)
e|----------|-----------------------|   play part (i)x 2 then part (ii) x 2
B|----------|------12---------------|
G|--------7-|--9----9---------------|
D|--7--4--7-|--7--------------------|
A|--7--4--5-|--0--------------------|
E|--5--2----|-----------------------|

Pre Verse
e|----------------------------------|
B|----------------------------------|
G|--------7-------------------------|
D|--4--7--7-------------------------| 
A|--4--7--5-------------------------|
E|--2--5----------------------------|

VERSE

END OF VERSE x 1

CHORUS

VERSE

BRIDGE
e|-------------------------------------|
B|-------------------------------------|
G|--6--7--9--7--6--2--6--7--9--7--9--7-|
D|--x--x--x--x--x--2--x--x--x--x--x--x-| 
A|--4--5--7--5--4--0--4--5--7--5--7--5-| 
E|-------------------------------------| 
                                      

CHORUS

OUTRO
e|--------------------|
B|--------------------|
G|--6--7--9--7--6--2~-|
D|--x--x--x--x--x--2~-| 
A|--4--5--7--5--4--0~-| 
E|--------------------|
Tap to rate this tab
 
# A B C D E F G H I J K L M N O P Q R S T U V W X Y Z