Guitaretab - guitar tabs
Song name
# A B C D E F G H I J K L M N O P Q R S T U V W X Y Z

Alkaline Trio - Sundials tab

ALKALINE TRIO
SUNDIALS
THE ALKALINE TRIO

INTRO
|---------------------------------------------------|
|---------------------------------------------------|
|---------------------------------------------------|
|------------------------------------22222222-44-22-|
|-\7-7------7------7-6------6------6-00000000-00-00-|
|-\0-0-0000-0-0000-0-0-0000-0-0000-0----------------|
       ****   ****     ****   ****
verse 1 [x4]
|---------------------------------------------------|
|---------------------------------------------------|
|---------------------------------------------------|
|------------------------------------22222222-44-22-|
|-\7-7------7------7-6------6------6-00000000-00-00-|
|-\0-0-0000-0-0000-0-0-0000-0-0000-0----------------|
       ****   ****     ****   ****
chorus [x4]
|-------------------------------------------
|-------------------------------------------
|-4444-8888-9999-11111111-12121212-14141414-
|-xxxx-xxxx-xxxx--x-x-x-x--x-x-x-x--x-x-x-x-
|-2222-6666-7777--9-9-9-9-10101010-12121212-
|-0000-0000-0000--0-0-0-0--0-0-0-0--0-0-0-0-

---------------------------|
---------------------------|
---------------------------|
---------------------------|
-10101010101


01010-99999999-|
--8-8-8-8-8-8-8-877777777-|
[ Tab from: http://www.guitaretab.com/a/alkaline-trio/58245.html ]
Intro [x2]
|---------------------------------------------------|
|---------------------------------------------------|
|---------------------------------------------------|
|------------------------------------22222222-44-22-|
|-\7-7------7------7-6------6------6-00000000-00-00-|
|-\0-0-0000-0-0000-0-0-0000-0-0000-0----------------|
       ****   ****     ****   ****
verse 2 pt.1 [x2]
|---------------------------------------------------|
|---------------------------------------------------|
|---------------------------------------------------|
|------------------------------------22222222-44-22-|
|-\7-----------------6---------------00000000-00-00-|
|-\0-----------------0------------------------------|

verse 2 pt.2 [x2]
|---------------------------------------------------|
|---------------------------------------------------|
|---------------------------------------------------|
|------------------------------------22222222-44-22-|
|-\7-7------7------7-6------6------6-00000000-00-00-|
|-\0-0-0000-0-0000-0-0-0000-0-0000-0----------------|
       ****   ****     ****   ****
chorus [x4]
|-------------------------------------------
|-------------------------------------------
|-4444-8888-9999-11111111-12121212-14141414-
|-xxxx-xxxx-xxxx--x-x-x-x--x-x-x-x--x-x-x-x-
|-2222-6666-7777--9-9-9-9-10101010-12121212-
|-0000-0000-0000--0-0-0-0--0-0-0-0--0-0-0-0-

---------------------------|
---------------------------|
---------------------------|
---------------------------|
-1010101010101010-99999999-|
--8-8-8-8-8-8-8-877777777-|

Interlude:
----------------------------------------------------------|
----------------------------------------------------------|
----------------------------------------------------------|
-10-10--10-10--10-10--10-10-------------------------------|
-10-10--10-10--10-10--10-10--10-10--10-10--12-12--10-10---|
-8--8---8--8---8--8---8--8---0--0---0--0---0--0---0--0----|


Ending Chord:
---------|
---------|
---------|
---14----|
---14----|
---12----|

for corrections email me at e_mericana@hotmail.com
Related for Sundials tab