Song name
# A B C D E F G H I J K L M N O P Q R S T U V W X Y Z

Alkaline Trio - Youve Got So Far To Go tab

ALKALINE TRIO
YOU'VE GOT SO FAR TO GO
MAYBE I'LL CATCH FIRE

INTRO 
e|---------------------------------------| 
B|-0-------------------------------------| 
G|-2-------------------------------------| 
D|-2-------------------------------------| let ring
A|---------------------------------------|
E|---------------------------------------|

Pre Chorus
    (i)            (ii)
e|---------|-----------------------------| 
B|---------|-----------------------------| 
G|-11--9---|-7---------------------------| 
D|-11--9---|-7---------------------------| 
A|--9--7---|-5---------------------------|
E|--9------|-----------------------------|

Chorus
e|---------------------------------------| 
B|---------------------------------------| 
G|-9--6--7-------------------------------| 
D|-7--6--7-------------------------------| x 4
A|-0--4--5-------------------------------|
E|---------------------------------------|

Intro

Pre Chorus (i) x 3 (ii) x 1

Chorus 
   (i)        (ii)
e|---------|-----------------------------| 
B|---------|-----------------------------| 
G|-9--6--7-|-9-6-7-9-6-------------------| 
D|-7--6--7-|-7-x-x-x-x-------------------| 
A|-0--4--5-|-0-4-5-7-4-------------------|
E|---------|-----------------------------|

On the last chorus matt plays part (i) but plays part (ii)
sometimes as well, you just have to listen to the cd to know
when to play part (ii) instead of (i).

End on
e|----| 
B|----| 
G|-2--|
D|-2--| 
A|-0--|
E|----|

for corrections email me at e_mericana@hotmail.com
Tap to rate this tab
# A B C D E F G H I J K L M N O P Q R S T U V W X Y Z