Song name
# A B C D E F G H I J K L M N O P Q R S T U V W X Y Z

Alkaline Trio - Emma Acoustic tab

Alkaline Trio - Emma (Acoustisch)
---------------------------------


Tabbed by: Dieltiens Ben


Info:
-----

Dit is de Tab van Emma (acoustisch), het is ook speelbaar op
de elektrische gitaar als ge de versterker op clean zet...
------------------------------------------------------------
This is the Tab of Emma (acoustic), it's also playable on clean setting on
you amp...


Translation:
------------

Brug    = Bridge
Refrein = Chorus


Enjoy
-----

Intro (x2)

E---------------------------|
B---------------------------|
G---------------------------|
D-------------2----4--------|
A---2---------0----2--------|
E---0-----------------------|

Verse (4x)

E--------------------------------------------------------|
B--------------------------------------------------------|
G--------------------------------------------------------|
D----------------------22222222---44444444---------------|
A---2222222222222222---00000000---22222222---------------|
E---0000000000000000-------------------------------------|

Refrein (x2)

E--------------------------------------------------------|
B--------------------------------------------------------|
G--------------------------------------------------------|
D---66666666--------------99999999-----------------------|
A---44444444---77777777---77777777---99999999------------|
E--------------55555555--------------77777777------------|

Brug (2x)

E--------------------------------------------------------|
B--------------------------------------------------------|
G--------------------------------------------------------|
D----------------------22222222---44444444---------------|
A---2222222222222222---00000000---22222222---------------|
E---0000000000000000-------------------------------------|


End

E--------------------------------------------------------|
B--------------------------------------------------------|
G--------------------------------------------------------|
D--------------------------------------------------------|
A---2~---------------------------------------------------|
E---0~---------------------------------------------------|

Songflow:                          Legend:  ~ | let ring
--------------
Intro     x2

Verse     x4

Refrein   x2

Brug      x2

Verse     x4

Refrein   x2

Brug      x2

Refrein   x2

Brug*     x4
Tap to rate this tab
# A B C D E F G H I J K L M N O P Q R S T U V W X Y Z