Song name
# A B C D E F G H I J K L M N O P Q R S T U V W X Y Z

Alkaline Trio - Madam Me tab

Madam Me by Alkaline Trio

Intro
e|---------------------------------------------------------------------------|
B|---------------------------------------------------------------------------|
G|------11-11-11--12--11-7-----------------------------11-11-11--12--11-7----|
D|-2-2--x--x--x---x---x--x--5-5-5-5-5--5-5-5-5-5--2-2--x--x--x---x---x--x----|
A|-2-2--9--9--9---10--9--5--2-2-2-2-2--3-3-3-3-3--2-2--9--9--9---10--9--5----|
E|-0-0--------------------------------------------0-0------------------------|

e|---------------------------------------------------------------------------|
B|---------------------------------------------------------------------------|
G|-----------------------7-7-7-7-7-7-7-7-7-7---------------------------------|
D|-5-5-5-5-5--5-5-5-5-5--7-7-7-7-7-7-7-7-7-7--5-5-5-5--5-5-5-5-5-------------|
A|-2-2-2-2-2--3-3-3-3-3--5-5-5-5-5-5-5-5-5-5--3-3-3-3--2-2-2-2-2-------------|
E|---------------------------------------------------------------------------|

Verse
"the sunrise..... fills your eyes...
no suprise... a surplus of lies.."
e|---------------------------------------------------------------------------|
B|---------------------------------------------------------------------------|
G|---------------------------------------------------------------------------|
D|-2-2--5-5-5-5--5-5-5-5-5--2-2--5-5-5-5--5-5-5-5-5--------------------------|
A|-2-2--2-2-2-2--3-3-3-3-3--2-2--2-2-2-2--3-3-3-3-3--------------------------|
E|-0-0----------------------0-0----------------------------------------------|

"cannot hear your cries.. pleading please....
freed from the sky.. is there someting..."
e|---------------------------------------------------------------------------|
B|---------------------------------------------------------------------------|
G|--------------------------7-7-7-7-7-7-7-7-7-7------------------------------|
D|-2-2--5-5-5-5--5-5-5-5-5--7-7-7-7-7-7-7-7-7-7--5-5-5-5--5-5-5-5-5----------|
A|-2-2--2-2-2-2--3-3-3-3-3--5-5-5-5-5-5-5-5-5-5--3-3-3-3--2-2-2-2-2----------|
E|-0-0-----------------------------------------------------------------------|

Chorus
"lower than piss..
she cant recall...
lower than piss.. judging by your eyes..."
e|---------------------------------------------------------------------------|
B|---------------------------------------------------------------------------|
G|---------------------7-7-7-7----------------7-7-7-7-7-7-7-7-7--------------|
D|---------------------7-7-7-7--5-5-5--5-5-5--7-7-7-7-7-7-7-7-7--5-5-5-5-----|
A|-5-5-5-5--5-5-5-5-5--5-5-5-5--3-3-3--2-2-2--5-5-5-5-5-5-5-5-5--3-3-3-3-----|
E|-3-3-3-3--2-2-2-2-2--------------------------------------------------------|

"madame me....."
e|---------------------------------------------------------------------------|
B|---------------------------------------------------------------------------|
G|------------7-7-7-7-7-7-7-7-7----------------------------------------------|
D|-5-5-5-5-5--7-7-7-7-7-7-7-7-7--5-5-5-5--5-5-5-5-5--------------------------|
A|-2-2-2-2-2--5-5-5-5-5-5-5-5-5--3-3-3-3--2-2-2-2-2--------------------------|
E|---------------------------------------------------------------------------|

outro
"and i will keep you warm in hell"
e|---------------------------------------------------------------------------|
B|---------------------------------------------------------------------------|
G|-11-11-11-11--12--12--12--12--12--5-5-5-5--7-7-7-7-7-----------------------|
D|-x--x--x--x----x---x---x---x---x--5-5-5-5--7-7-7-7-7-----------------------|
A|-9--9--9--9---10--10--10--10--10--3-3-3-3--5-5-5-5-5-----------------------|
E|---------------------------------------------------------------------------| 
Tap to rate this tab
 
# A B C D E F G H I J K L M N O P Q R S T U V W X Y Z