Song name
# A B C D E F G H I J K L M N O P Q R S T U V W X Y Z

Alkaline Trio - Over At The Frankenstein Place tab

Bassist: Dan Andriano
From the Rocky Horror Punk Rock Show
Tabbed By : Bizzles
e-mail: Sandkid6@aol.com 

Tuning:


~ Let Ring

Intro:
G|---------------------------------------------------------------------------|
D|---------------------------------------------------------------------------|
A|0h7-7-7-7-7-7-7-7-0h7-7-7-7-7-7-7-7-0h7-7-7-7-7-7-7-7-0h7-7-7-7-7-7-7-7----|
E|---------------------------------------------------------------------------|

Verse:
G|---------------------------------------------------------------------------|
D|---------------------------------------------------------------------------|
A|0h7-7-7-7-7-7-7-7-0h5-5-5-5-5-5-5-5----------------------------------------|
E|------------------------------------0h5-5-5-5-5-5-5-5-0h5-5-5-5-5-5-5-5----|

G|---------------------------------------------------------------------------|
D|---------------------------------------------------------------------------|
A|0h7-7-7-7-7-7-0h7-6-4-4-4-4-4-4-4-4-0h4-4-4-4-4-4-4-4----------------------|
E|------------------------------------------------------0h2-2-2-2-2-2-2-2----|

Prechorus:
G|---------------------------------------------------------------------------|
D|---------------------------------------------------------------------------|
A|2222222222222222-----------------------------------------------------------|
E|---------------------------------------------------------------------------|

Chorus
G|---------------------------------------------------------------------------|
D|---------------------------------------------------------------------------|
A|-----------------------22224444--------------------------------------------|
E|00000000-00000000-0000----------55555555-55555555-55555555-55555555--------|

G|---------------------------------------------------------------------------|
D|---------------6------6----------------------------------------------------|
A|-------7-6-4-44-4-4-44-4---------22222222----------------------------------|
E|000000-------------------22222222------------------------------------------|

Solo sec. 1 2X (don't play the open E the second time)
G|-------9~-----------9--9~--------------------------------------------------|
D|---9h11--11/9---9h11-11--11/9----------------------------------------------|
A|-------------7~--------------7~--------------------------------------------|
E|0~~------------------------------------------------------------------------|

Solo sec. 2
G|9h11\13~~-11-9----9h11-----------------------------------6~----------------|
D|---------------11~-----9-11-9-6------------------------6---6---6-----------|
A|--------------------------------11-9-7~-----6~-6h7-6-4------4---4-2--------|
E|----------------------------------------7h9--------------------------------|

G|---------------9---9-------------------------------------------------------|
D|-------------7---7---7-----------------------------------------------------|
A|00000000-000-----------22222222-22222222-22222222--------------------------|
E|---------------------------------------------------------------------------|

Then play the chorus again once.
end on E|0|
that's it.

| /  slide up
| \  slide down
| h  hammer-on
| p  pull-off
| ~  let ring
| +  harmonic
| x  Mute note
=============================================================================
Tap to rate this tab
# A B C D E F G H I J K L M N O P Q R S T U V W X Y Z