Guitaretab - guitar tabs
Song name
# A B C D E F G H I J K L M N O P Q R S T U V W X Y Z

All-american Rejects - Move Along Live tab

Title  Move Along [live]
Artist- The All-American Rejects
Album  Move Along
Tuning: Half-Step Down (Eb Bb Gb Db Ab Eb)
                       (D# A# F# C# G# D#)

Nick-Guitar 1 (Eb Bb Gb Db Ab Eb) Distortion unless noted
Mike-Guitar 2 (Eb Bb Gb Db Ab Eb) Distortion unless noted
Tyson-Bass (Eb Bb Gb Db)-Distortion

Performaces vary, some parts are played some are not. this is just the general
parts. This should be 100% accurate or close enough. A lot of the tabs for this
song just aren't right or are too complicated, well this is how the band plays it
so it can't be wrong.

Intro drums: 
Guitar 1 and 2-hitting the neck causing vibration and feedback
|~~~~~~~~~~~~~~~~~~~~~~~~~~~~~~~~~~~~~~~~~~~~~~~~~~~~~~~~~~~~~~|
|~~~~~~~~~~~~~~~~~~~~~~~~~~~~~~~~~~~~~~~~~~~~~~~~~~~~~~~~~~~~~~|
|~~~~~~~~~~~~~~~~~~~~~~~~~~~~~~~~~~~~~~~~~~~~~~~~~~~~~~~~~~~~~~|
|~~~~~~~~~~~~~~~~~~~~~~~~~~~~~~~~~~~~~~~~~~~~~~~~~~~~~~~~~~~~~~|
|~~~~~~~~~~~~~~~~~~~~~~~~~~~~~~~~~~~~~~~~~~~~~~~~~~~~~~~~~~~~~~|
|~~~~~~~~~~~~~~~~~~~~~~~~~~~~~~~~~~~~~~~~~~~~~~~~~~~~~~~~~~~~~~|

Bass Enters:
|-----------------------------------------------------------------|
|-----------------------------------------------------------------|
|-----------------------------------------------------------------|
|-\slide from random point to 0-00-0-0-0-0-0-0-0-0-0-0-0-0-0-0-0--|

Intro:
Guitar 1
|---------------------------------|---------------------------------|
|-9-9---9-9---9-9---9-9---9-9-9-9-|-7-7---7-7---7-7---7-7---7-7-7-7-|
|-9-9---9-9---9-9---9-9---9-9-9-9-|-8-8---8-8---8-8---8-8---8-8-8-8-|
|-9-9---9-9---9-9---9-9---9-9-9-9-|-9-9---9-9---9-9---9-9---9-9-9-9-|
|---------------------------------|---------------------------------|
|---------------------------------|---------------------------------|
Guitar 2
|---------------------------------|---------------------------------|
|---------------------------------|---------------------------------|
|---------------------------------|---------------------------------|
|-6-6---6-6---6-6---6-6---6-6-6-6-|-9-9---9-9---9-9---9-9---9-9-9-9-|
|-7-7---7-7---7-7---7-7---7-7-7-7-|-9-9---9-9---9-9---9-9---9-9-9-9-|
|---------------------------------|---------------------------------|
Bass
|---------------------------------|---------------------------------|
|---------------------------------|---------------------------------|
|---------------------------------|---------------------------------|
|-0-0---0-0---0-0---0-0---0-0-0-0-|-7-7---7-7---7-7---7-7---7-7-7-7-|

Guitar 1
|---------------------------------|---------------------------------|
|-9-9---9-9---9-9---9-9---9-9-9-9-|1010--1010--1010--1010--10101010-|
|-9-9---9-9---9-9---9-9---9-9-9-9-|-9-9---9-9---9-9---9-9---9-9-9-9-|
|-1111--1111--1111--1111--1111111-|-1111--1111--1111--1111--1111111-|
|---------------------------------|---------------------------------|
|---------------------------------|---------------------------------|
Guitar 2
|---------------------------------|---------------------------------|
|---------------------------------|---------------------------------|
|---------------------------------|---------------------------------|
|-9-9---9-9---9-9---9-9---9-9-9-9-|-7-7---7-7---7-7---7-7---7-7-7-7-|
|-7-7---7-7---7-7---7-7---7-7-7-7-|-7-7---7-7---7-7---7-7---7-7-7-7-|
|---------------------------------|---------------------------------|
Bass
|---------------------------------|---------------------------------|
|---------------------------------|---------------------------------|
|---------------------------------|---------------------------------|
|-9-9---9-9---9-9---9-9---9-9-9-9-|-5-5---5-5---5-5---5-5---5-5-5-5-|


Verse I 
Guitar 1
|---------------------------------|---------------------------------|
|o9-9---9-9---9-9---9-9---9-9-9-9-|-4-4---4-4---4-4---4-4---4-4-4-4-|
|-9-9---9-9---9-9---9-9---9-9-9-9-|-4-4---4-4---4-4---4-4---4-4-4-4-|
|-9-9---9-9---9-9---9-9---9-9-9-9-|-6-6---6-6---6-6---6-6---6-6-6-6-|
|o--------------------------------|---------------------------------|
|---------------------------------|---------------------------------|
Guitar 2
|---------------------------------|---------------------------------|
|---------------------------------|---------------------------------|
|---------------------------------|---------------------------------|
|---------------------------------|---------------------------------|
|-7-7---7-7---7-7---7-7---7-7-7-7-|-6-6---6-6---6-6---6-6---6-6-6-6-|
|---------------------------------|---------------------------------|
Bass
|---------------------------------|---------------------------------|
|---------------------------------|---------------------------------|
|-7-7---7-7---7-7---7-7---7-7-7-7-|-6-6---6-6---6-6---6-6---6-6-6-6-|
|---------------------------------|---------------------------------|

Guitar 1
|---------------------------------|---------------------------------|
|-5-5---5-5---5-5---5-5---5-5-4-4-|-5-5---5-5---5-5---5-5---5-5-4-4o|
|-6-6---6-6---6-6---6-6---6-6-4-4-|-6-6---6-6---6-6---6-6---6-6-4-4-|
|-6-6---6-6---6-6---6-6---6-6-4-4-|-6-6---6-6---6-6---6-6---6-6-4-4-|
|---------------------------------|--------------------------------o|
|---------------------------------|---------------------------------|
Guitar 2
|---------------------------------|---------------------------------|
|---------------------------------|--------------------------------o|
|---------------------------------|---------------------------------|
|---------------------------------|---------------------------------|
|-4-4---4-4---4-4---4-4---4-4-2-2-|-4-4---4-4---4-4---4-4---4-4-2-2o|
|---------------------------------|---------------------------------|
Bass
|---------------------------------|---------------------------------|
|---------------------------------|---------------------------------|
|-4-4---4-4---4-4---4-4---4-4-2-2-|-4-4---4-4---4-4---4-4---4-4-2-2-|
|---------------------------------|---------------------------------|


Pre Chorus
Bass
|----------------------------|
|----------------------------|
|----------------------------|
|-5~---5--0---5--4---5---0---|
Guitar 1 or 2
|---------------------------------|---------------------------------|
|---------------------------------|---------------------------------|
|---------------------------------|---------------------------------|
|---------------------------------|---------------------------------|
|---------------------------------|---------------------------------|
|---------------------------------|-----------------------------16/-|


Chorus 
Guitar 1
|---------------------------------|---------------------------------|
|---------------------------------|---------------------------------|
|-6-6-6-6-6-6-6-6-4-4-4-4-4-4-4-4-|---------------------------------|
|-6-6-6-6-6-6-6-6-6-6-6-6-6-6-6-6-|-4-4-4-4-4-4-4-4-2-2-2-2-2-2-2-2-|
|-4-4-4-4-4-4-4-4-7-7-7-7-7-7-7-7-|-6-6-6-6-6-6-6-6-4-4-4-4-4-4-4-4-|
|-----------------0-0-0-0-0-0-0-0-|-7-7-7-7-7-7-7-7-5-5-5-5-5-5-5-5-|
|                                              
Guitar 2                                                                
|---------------------------------|---------------------------------|
|---------------------------------|---------------------------------|
|-9-9-9-9-9-91111-9-9-9-9-9-9-9-9-|-8-8-8-8-8-8-8-8-6-6-6-6-6-6-8-8-|
|-x-x-x-x-x-x-x-x-x-x-x-x-x-x-x-x-|-x-x-x-x-x-x-x-x-x-x-x-x-x-x-x-x-|
|-7-7-7-7-7-7-9-9-7-7-7-7-7-7-7-7-|-6-6-6-6-6-6-6-6-4-4-4-4-4-4-6-6-|
|---------------------------------|---------------------------------|
Bass
|---------------------------------|---------------------------------|
|---------------------------------|---------------------------------|
|-4-4-4-4-4-4-4-4-7-7-7-7-7-7-7-7-|---------------------------------|
|---------------------------------|-7-7-7-7-7-7-7-7-5-5-5-5-5-5-5-5-|
Guitar 1
|---------------------------------|---------------------------------|
|---------------------------------|---------------------------------|
|-6-6-6-6-6-6-6-6-4-4-4-4-4-4-4-4-|---------------------------------|
|-6-6-6-6-6-6-6-6-6-6-6-6-6-6-6-6-|-4-4-4-4-4-4-4-4-2-2-2-2-2-2-2-2-|
|-4-4-4-4-4-4-4-4-7-7-7-7-7-7-7-7-|-6-6-6-6-6-6-6-6-4-4-4-4-4-4-4-4-|
|-----------------0-0-0-0-0-0-0-0-|-7-7-7-7-7-7-7-7-5-5-5-5-5-5-5-5-|
|                                              
Guitar 2                                                                
|---------------------------------|---------------------------------|
|---------------------------------|---------------------------------|
|-9-9-9-9-9-9-9-9-1313131313131313|-111111111111111-9-9-9-9-9-9-9-9-|
|-x-x-x-x-x-x-x-x-x-x-x-x-x-x-x-x-|-x-x-x-x-x-x-x-x-x-x-x-x-x-x-x-x-|
|-7-7-7-7-7-7-7-7-1111111111111111|-9-9-9-9-9-9-9-9-7-7-7-7-7-7-7-7-|
|---------------------------------|---------------------------------|
Bass
|---------------------------------|---------------------------------|
|---------------------------------|---------------------------------|
|-4-4-4-4-4-4-4-4-7-7-7-7-7-7-7-7-|---------------------------------|
|---------------------------------|-7-7-7-7-7-7-7-7-5-5-5-5-5-5-5-5-|


[Repeat Intro] Guitar 2 has deplay effect turned on w/ reverb, no distortion
Guitar 1 still distorted 

[ Tab from: http://www.guitaretab.com/a/all-american-rejects/100850.html ]
Verse II
Guitar 1
|---------------------------------|
|---------------------------------|
|---------------------------------|
|-2-2-2-2-2-------6-6-6-6-6-------|
|-2-2-2-2-2-------6-6-6-6-6-------|
|-0-0-0-0-0-------4-4-4-4-4-------|
Guitar 2
|-0-0-0-0-0-------4-4-4-4-4-------|
|-0-0-0-0-0-------4-4-4-4-4-------|
|-0-0-0-0-0-------4-4-4-4-4-------|
|-2-2-2-2-2-------6-6-6-6-6-------|
|-2-2-2-2-2-------6-6-6-6-6-------|
|-0-0-0-0-0-------4-4-4-4-4-------| 
Bass
|---------------------------------|
|---------------------------------|
|---------------------------------|
|-0-0-0-0-0-------4-4-4-4-4-------|  
   
   
Guitar 1
|---------------------------|----------------------------|
|-5-----5-----5-----4-------|-5-----5-----5-----4--------|
|---6-----6-----6-----6-4-6-|---6-----6-----6-----6-4-6--|
|-----6-----6-----6---------|-----6-----6-----6----------|
|---------------------------|----------------------------|
|---------------------------|----------------------------|
PM* * * * * * * * * * * * * * * * * * * * * * * * * * *.
Bass
|---------------------------|----------------------------|
|---------------------------|----------------------------|
|-4-4--4-4--4-4---4-4-4-4---|-4-4--4-4--4-4---4-4-4-4-4--|
|---------------------------|----------------------------|

Guitar 1
|---------------------------|----------------------------|
|-5-----5-----5-----5-------|-4-----4-----4-----4--------|
|---4-----4-----4-----4---4-|---4-----4-----4-----4---4--|
|-----6-----6-----6-----6---|-----6-----6-----6-----6----|
|---------------------------|----------------------------|
|---------------------------|----------------------------|
PM* * * * * * * * * * * * * * * * * * * * * * * * * * *
Bass
|---------------------------|----------------------------|
|---------------------------|----------------------------|
|---------------------------|----------------------------|
|-0-0--0-0--0-0---0-0-0-0---|-4-4--4-4--4-4---4-4-4-4----|

Guitar 1
|---------------------------|----------------------------|
|-5-----5-----5-----4-------|-5-----5-----5-----4--------|
|---6-----6-----6-----6-4-6-|---6-----6-----6-----6-4-6--|
|-----6-----6-----6---------|-----6-----6-----6----------|
|---------------------------|----------------------------|
|---------------------------|----------------------------|
PM* * * * * * * * * * * * * * * * * * * * * * * * * * *
Bass
|---------------------------|----------------------------|
|---------------------------|----------------------------|
|-4-4--4-4--4-4---4-4-4-4---|-4-4--4-4--4-4---4-4-4-4-4--|
|---------------------------|----------------------------|

Pre Chorus 
Guitar 1
|------------------------------12-----|---------------------------------|
|-----------------------910p9----10-9-|---------------------------------|
|-----------------------------9-------|-9-------------------------------|
|-------------------------------------|---------------------------------|
|-------------------------------------|---------------------------------|
|-------------------------------------|---------------------------------|
Guitar 2
|-----17-17-17-17-17--16--------------|---------------------------------|
|-----tremelo pick-{still clean-------|---------------------------------|
|------------------no distortion}-----|---------------------9-9~------\-|
|-------------------------------------|---------------------9-9~------\-|
|-------------------------------------|---------------------7-7~------\-|
|-------------------------------------|---------------------------------|
Bass
|-------------------------------------|---------------------------------|
|-------------------------------------|---------------------------------|
|-------------------------------------|---------------------------------|
|5------5------------0----------------|--5----4-------5-----0-----------|
 

[Repeat Chorus] Distortion now back on


Bridge
Guitar 1
|---------------------------------|---------------------------------|
|-9-9---9-9---9-9---9-9---9-9-9-9-|-7-7---7-7---7-7---7-7---7-7-7-7-|
|-9-9---9-9---9-9---9-9---9-9-9-9-|-8-8---8-8---8-8---8-8---8-8-8-8-|
|-9-9---9-9---9-9---9-9---9-9-9-9-|-9-9---9-9---9-9---9-9---9-9-9-9-|
|---------------------------------|---------------------------------|
|---------------------------------|---------------------------------|
Guitar 2
|---------------------------------|---------------------------------|
|---------------------------------|---------------------------------|
|-1~~-----------------------------|-4~~-----------------------------|
|-2~~-----------------------------|-4~~-----------------------------|
|-2~~-----------------------------|-2~~-----------------------------|
|-0~~-----------------------------|---------------------------------|
Bass
|---------------------------------|---------------------------------|
|---------------------------------|---------------------------------|
|---------------------------------|---------------------------------|
|-0-0---0-0---0-0---0-0---0-0-0-0-|-7-7---7-7---7-7---7-7---7-7-7-7-|

Guitar 1
|---------------------------------|---------------------------------|
|-9-9---9-9---9-9---9-9---9-9-9-9-|1010--1010--1010--1010--10101010-|
|-9-9---9-9---9-9---9-9---9-9-9-9-|-9-9---9-9---9-9---9-9---9-9-9-9-|
|-1111--1111--1111--1111--1111111-|-1111--1111--1111--1111--1111111-|
|---------------------------------|---------------------------------|
|---------------------------------|---------------------------------|
Guitar 2
|---------------------------------|---------------------------------|
|---------------------------------|---------------------------------|
|-6~~-----------------------------|-2~~-----------------------------|
|-6~~-----------------------------|-2~~-----------------------------|
|-4~~-----------------------------|-0~~-----------------------------|
|---------------------------------|---------------------------------|
Bass
|---------------------------------|---------------------------------|
|---------------------------------|---------------------------------|
|---------------------------------|---------------------------------|
|-9-9---9-9---9-9---9-9---9-9-9-9-|-5-5---5-5---5-5---5-5---5-5-5-5-|

Guitar 1
|---------------------------------|---------------------------------|
|o17------------------------------|-17-----------------------------o|
|-16--16--14--13------------------|-16--16--14--13------------------|
|-x---------------16--------------|-x---------------16--------------|
|o14-------------------14v~~------|-14-------------------14v~~-----o|
|---------------------------------|---------------------------------|
Guitar 2
|-0~~~----------------------------|-0~~~----------------------------|
|o0~~~----------------------------|-0~~~---------------------------o|
|-1~~~----------------------------|-1~~~----------------------------|
|-2~~~----------------------------|-2~~~----------------------------|
|o2~~~----------------------------|-2~~~---------------------------o|
|-0~~~----------------------------|-0~~~----------------------------|

Guitar 2
|------------------|
|------------------|
|-9-9-9-9-9-9-9-9/-|
|-9-9-9-9-9-9-9-9/-|
|-7-7-7-7-7-7-7-7/-|
|------------------|
Bass:
|-------------------|
|-------------------|
|-------------------|
|-1212121212121212/-|

Piano Interlude 





Outro 
Guitar 1
|---------------------------------|---------------------------------|
|o9-9---9-9---9-9---9-9---9-9-9-9-|-7-7---7-7---7-7---7-7---7-7-7-7-|
|-9-9---9-9---9-9---9-9---9-9-9-9-|-8-8---8-8---8-8---8-8---8-8-8-8-|
|-9-9---9-9---9-9---9-9---9-9-9-9-|-9-9---9-9---9-9---9-9---9-9-9-9-|
|o--------------------------------|---------------------------------|
|---------------------------------|---------------------------------|
Guitar 2
|---------------------------------|---------------------------------|
|---------------------------------|---------------------------------|
|-1~~-----------------------------|-4~~-----------------------------|
|-2~~-----------------------------|-4~~-----------------------------|
|-2~~-----------------------------|-2~~-----------------------------|
|-0~~-----------------------------|---------------------------------|
Bass
|---------------------------------|---------------------------------|
|---------------------------------|---------------------------------|
|---------------------------------|---------------------------------|
|-0-0---0-0---0-0---0-0---0-0-0-0-|-7-7---7-7---7-7---7-7---7-7-7-7-|

Guitar 1
|---------------------------------|---------------------------------|
|-9-9---9-9---9-9---9-9---9-9-9-9-|1010--1010--1010--1010--10101010o|
|-9-9---9-9---9-9---9-9---9-9-9-9-|-9-9---9-9---9-9---9-9---9-9-9-9-|
|-1111--1111--1111--1111--1111111-|-1111--1111--1111--1111--1111111-|
|---------------------------------|--------------------------------o|
|---------------------------------|---------------------------------|
Guitar 2
|---------------------------------|---------------------------------|
|---------------------------------|--------------------------------o|
|-6~~-----------------------------|-2~~-----------------------------|
|-6~~-----------------------------|-2~~-----------------------------|
|-4~~-----------------------------|-0~~----------------------------o|
|---------------------------------|---------------------------------|
Bass
|---------------------------------|---------------------------------|
|---------------------------------|---------------------------------|
|---------------------------------|---------------------------------|
|-9-9---9-9---9-9---9-9---9-9-9-9-|-5-5---5-5---5-5---5-5---5-5-5-5-|

Guitar 1 and 2:
|----|
|----|
|-9/-|
|-9/-|
|-7/-|
|----|

Bass Outro:
|--------------------|
|--------------------|
|--------------------|
|-5--5-0--5--4--5--0-|

Related for Move Along Live tab