Song name
# A B C D E F G H I J K L M N O P Q R S T U V W X Y Z

All-american Rejects - It Ends Tonight Acoustic tab

Help us improve GuitareTab! Take a short survey!
Band / Artist : The All-American Rejects
Song Title : It Ends Tonite (Acoustic)
Tabbed By : Shawn

Dude. First song I ever learned, been playin' it everyday for like 2 years. It's
a great song. Here.

 Intro :
e|0---3-------3------------------|
B|1---3---1---3------------------|
G|2---0---2---0------------------|
D|2---0---3---0------------------|
A|0---2-------2------------------|
E|----3-------3------------------|
  Am  G   F   G
 
Verse :
e|0-------1----------------------:|
B|1---1---3---1------------------:|
G|2---2---2---2------------------:| (repeat)
D|2---3---0---3------------------:|
A|0------------------------------:|
E|-------------------------------:|
  Am  F  Dm   F
 
 Pre-Chorus :
e|--------0---0-------0---1---1---|
B|1---1---1---1---1---1---3---3---|
G|2---2---0---0---2---2---2---2---|
D|3---3---2---2---3---2---0---0---|
A|--------3---3-------0-----------|
E|--------------------------------|
  F   F   C  C   F   Am   Dm  Dm
 
 Chorus :
e|0-------0---3------------------ |
B|1---1---1---3-------------------|
G|0---2---2---0-------------------|
D|2---3---2---0-------------------|
A|3-------0---2-------------------|
E|------------3-------------------|
  C   F   Am  G

-NOW IT GETS FASTER AND IT'S FOUR BEATS NOW-
                           (listen for beat)
 
 Verse :
e|0-------1----------------------:|
B|1---1---3---1------------------:|
G|2---2---2---2------------------:| (repeat)
D|2---3---0---3------------------:|
A|0------------------------------:|
E|-------------------------------:|
  Am  F  Dm  F
 
 Pre-Chorus :
e|--------0---0-------0---1---1---|
B|1---1---1---1---1---1---3---3---|
G|2---2---0---0---2---2---2---2---|
D|3---3---2---2---3---2---0---0---|
A|--------3---3-------0-----------|
E|--------------------------------|
 F   F   C   C   F   Am   Dm  Dm 

 Chorus :
e|0-------0---3------------------ |
B|1---1---1---3-------------------|
G|0---2---2---0-------------------|
D|2---3---2---0-------------------|
A|3-------0---2-------------------|
E|------------3-------------------|
 C   F   Am  G

 Bridge :
e|0----3-----------0-------------------3-|
B|1----3---3---1---1-----------1---3---3-|
G|2----0---2---2---2-----------2---2---0-|
D|2----0---0---3---2-----------3---0---0-|
A|0----2---0-------0---2-----------0---2-|
E|-----3-------------------2-----------3-|
  Am   G D/5A  F  Am           F D/5A  G  

 Verse :
e|0-------1----------------------|
B|1---1---3---1------------------|
G|2---2---2---2------------------| 
D|2---3---0---3------------------|
A|0------------------------------|
E|-------------------------------|
  Am  F  Dm  F

 Chorus :
e|0-------0---3------------------ :|
B|1---1---1---3-------------------:|
G|0---2---2---0-------------------:| (repeat to end)
D|2---3---2---0-------------------:|
A|3-------0---2-------------------:|
E|------------3-------------------:|
   C  F   Am  G

Great...easy song. Hope it sounds good. sweet. bye
Related for It Ends Tonight Acoustic tab