Song name
# A B C D E F G H I J K L M N O P Q R S T U V W X Y Z

All-american Rejects - Real World tab

----------------------------------------------------------------------------
			               REAL WORLD - All-American Rejects
----------------------------------------------------------------------------
Tabbed by:chris_james
Email: chris.lewis.james@hotmail.com

Tuning: Lead Guitar - Drop D
        Rhythm Guitar - Standard

Intro - Lead Guitar x2

e|---------------------------------------------------|
B|---------------------------------------------------|
G|---------------------------------------------------|
D|---------------------------------------------------|
A|---------------------------------------------------|
E|--12~--\--7~--/--10~--\--5~----5~-/-7~----3-2-0----|

Intro Part 2 - Lead Guitar x2
 
e|------------------------------------------------------------------------------------|
B|------------------------------------------------------------------------------------|
G|--7-7-7-7-7-7-7-7-10-10-10-10-10-10-10-10-5-5-5-5-5-5-5-5-12-12-12-12-12-12-12-12---|
D|--7-7-7-7-7-7-7-7-10-10-10-10-10-10-10-10-5-5-5-5-5-5-5-5-12-12-12-12-12-12-12-12---|
A|--5-5-5-5-5-5-5-5-8--8--8--8--8--8--8--8--3-3-3-3-3-3-3-3-10-10-10-10-10-10-10-10---|
E|------------------------------------------------------------------------------------|

Intro Part 2 - Rhythm Guitar x2

e|---------------------------------------------------------------------|
B|---------------------------------------------------------------------|
G|--7-7-7-7-7-7-7-7-5-5-5-5-5-5-5-5-5-5-5-5-5-5-5-5-5------------------|
D|--7-7-7-7-7-7-7-7-5-5-5-5-5-5-5-5-5-5-5-5-5-5-5-5-5-5-5-5-5-5-5-5-5--|
A|--5-5-5-5-5-5-5-5-3-3-3-3-3-3-3-3-3-3-3-3-3-3-3-3-3-5-5-5-5-5-5-5-5--|
E|----------------------------------------------------3-3-3-3-3-3-3-3--|

Intro Part 2 - (This part is not on guitar but you can add it in if you want)

e|--13-12-13-12-----13-12-13-12-----13-12-13-12--15-13-12----------|
B|--------------------------------------------------------15-------|
G|-----------------------------------------------------------------|
D|-----------------------------------------------------------------|
A|-----------------------------------------------------------------|
E|-----------------------------------------------------------------|

During the verse there is a pick slide on the low E

Pre Chorus - Lead Guitar

e|------|
B|------|
G|--10--| 
D|--10--| Repeated loads of times
A|--8---|
E|------|

Chorus - Lead Guitar (repeated)

e|------------------------------------------------------------------------------------|
B|------------------------------------------------------------------------------------|
G|--7-7-7-7-7-7-7-7-10-10-10-10-10-10-10-10-5-5-5-5-5-5-5-5-12-12-12-12-12-12-12-12---|
D|--7-7-7-7-7-7-7-7-10-10-10-10-10-10-10-10-5-5-5-5-5-5-5-5-12-12-12-12-12-12-12-12---|
A|--5-5-5-5-5-5-5-5-8--8--8--8--8--8--8--8--3-3-3-3-3-3-3-3-10-10-10-10-10-10-10-10---|
E|------------------------------------------------------------------------------------|

Chorus - Rhythm Guitar (repeated)

e|---------------------------------------------------------------------|
B|---------------------------------------------------------------------|
G|--7-7-7-7-7-7-7-7-5-5-5-5-5-5-5-5-5-5-5-5-5-5-5-5-5------------------|
D|--7-7-7-7-7-7-7-7-5-5-5-5-5-5-5-5-5-5-5-5-5-5-5-5-5-5-5-5-5-5-5-5-5--|
A|--5-5-5-5-5-5-5-5-3-3-3-3-3-3-3-3-3-3-3-3-3-3-3-3-3-5-5-5-5-5-5-5-5--|
E|----------------------------------------------------3-3-3-3-3-3-3-3--|

2nd Verse - Lead Guitar

e|--------------------------------------------------|
B|--------------------------------------------------|
G|--------------------------------------------------|
D|-------------------------------------5--3-2-------|
A|----------5--3------------------------------3-----|
E|---12\---------5-3--0-----------------------------|

2nd Verse - Rhythm Guitar (distant) x2

e|--------------------------------------------|
B|--------------------------------------------|
G|--7--7------10--10------5--5------12--12----|
D|--7--7------10--10------5--5------12--12----|
A|--5--5------8---8-------3--3------10--10----|
E|--------------------------------------------|

Bridge - Both Guitars

e|-----------------------------------------------------------------|
B|-----------------------------------------------------------------|
G|--7--------5--------4--------3--------7--------5--------4--------|
D|--7--------5--------4--------3--------7--------5--------4--------|
A|--5--------3--------2--------1--------5--------3--------2--------|
E|-----------------------------------------------------------------|


| /  slide up
| \  slide down
| h  hammer-on
| p  pull-off
| ~  vibrato
| +  harmonic
| x  Mute note
============================================================================
Tap to rate this tab
 
# A B C D E F G H I J K L M N O P Q R S T U V W X Y Z