Song name
# A B C D E F G H I J K L M N O P Q R S T U V W X Y Z

All-american Rejects - Mona Lisa tab

-------------------------------------------------------------------------------
       Mona Lisa (When the World Comes Down) - The All American Rejects
-------------------------------------------------------------------------------
Tabbed by: JoshuAAR
Email: jobbie_d@hotmail.com

Tuning: Standard


Intro x4

e----------------------------|
B------3-0-------------------|
G----0-----0----0--------0---|
D-----------0h4------5/7-----|
A-----------------0h3--------|
E--3-------------------------|


Verse x1

e-----------------------------------------------|
B------3(0)-------3---------3------3----3-------|
G----0----------0----0-----0---0----0-----0-0---|
D----------0h4---------0--------0----0--------0-|
A------------------------3----------------------|
E--3--------------------------------------------|


e----------------------------------------0------|
B------3(0)-------3---------3------3----3-3-----|
G----0----------0----0---------0----0------0----|
D----------0h4---------0--------0----0----------|
A------------------------3----------------------|
E--3--------------------------------------------|


e-----------------------------------------------|
B------3(0)-------3---------3------3----3-------|
G----0----------0----0-----0---0----0-----0-0---|
D----------0h4---------0--------0----0--------0-|
A------------------------3----------------------|
E--3--------------------------------------------|


e--3-3--3-3-3-----2-2-2--2-2-3-----3-3-3-3-3-3-3-3-3-3--2-2-3--|
B--3-3--3-3-3-----3-3-3--3-3-3-----3-3-3-3-3-3-3-3-3-3--3-3-3--|
G--0-0--0-0-0-----2-2-2--2-2-2-----0-0-0-0-0-0-0-0-0-0--2-2-2--|
D--2-2--2-2-2-----0-0-0--0-0-0-----2-2-2-2-2-2-2-2-2-2--0-0-0--|
A--2-2--2-2-2----------------------3-3-3-3-3-3-3-3-3-3---------|
E--0-0--0-0-0--------------------------------------------------|


Chorus x4

e--3-3-3-3-3-3-----2--2-3-----3--3-3--|
B--3-3-3-3-3-3-----3--3-3-----3--3-3--|
G--0-0-0-0-0-0-----2--2-2-----0--0-0--|
D--0-0-0-0-0-0-----0--0-0-----2--2-2--|
A--2-2-2-2-2-2----------------3--3-3--|
E--3-3-3-3-3-3------------------------|


Intro x2

e----------------------------|
B------3-0-------------------|
G----0-----0----0--------0---|
D-----------0h4------5/7-----|
A-----------------0h3--------|
E--3-------------------------|


Verse(2) x1

e--2-2--2-2-2-----2-2---2-2h3-----3-3-3-3-3-3-3-3-3-3--|
B--2-2--2-2-2-----3-3---3-3-3-----3-3-3-3-3-3-3-3-3-3--|
G--0-0--0-0-0-----2-2---2-2-2-----0-0-0-0-0-0-0-0-0-0--|
D--0-0--0-0-0-----0-0---0-0-0-----2-2-2-2-2-2-2-2-2-2--|
A--2-2--2-2-2---------------------3-3-3-3-3-3-3-3-3-3--|
E--3-3--3-3-3------------------------------------------|


e--2-2--2-2-2-----2-2---2-2h3-----3-3-3-3-3-3-3-3-3-3--2-2-3--|
B--2-2--2-2-2-----3-3---3-3-3-----3-3-3-3-3-3-3-3-3-3--3-3-3--|
G--0-0--0-0-0-----2-2---2-2-2-----0-0-0-0-0-0-0-0-0-0--2-2-2--|
D--0-0--0-0-0-----0-0---0-0-0-----2-2-2-2-2-2-2-2-2-2--0-0-0--|
A--2-2--2-2-2---------------------3-3-3-3-3-3-3-3-3-3---------|
E--3-3--3-3-3-------------------------------------------------|


e--2-2--2-2-2-----2-2---2-2h3-----3-3-3-3-3-3-3-3-3-3--|
B--2-2--2-2-2-----3-3---3-3-3-----3-3-3-3-3-3-3-3-3-3--|
G--0-0--0-0-0-----2-2---2-2-2-----0-0-0-0-0-0-0-0-0-0--|
D--0-0--0-0-0-----0-0---0-0-0-----2-2-2-2-2-2-2-2-2-2--|
A--2-2--2-2-2---------------------3-3-3-3-3-3-3-3-3-3--|
E--3-3--3-3-3------------------------------------------|


e--3-3--3-3-3-----2-2-2--2-2-3-----3-3-3-3-3-3-3-3-3-3--2-2-3--|
B--3-3--3-3-3-----3-3-3--3-3-3-----3-3-3-3-3-3-3-3-3-3--3-3-3--|
G--0-0--0-0-0-----2-2-2--2-2-2-----0-0-0-0-0-0-0-0-0-0--2-2-2--|
D--2-2--2-2-2-----0-0-0--0-0-0-----2-2-2-2-2-2-2-2-2-2--0-0-0--|
A--2-2--2-2-2----------------------3-3-3-3-3-3-3-3-3-3---------|
E--0-0--0-0-0--------------------------------------------------|


Chorus x4

e--3-3-3-3-3-3-----2--2-3-----3--3-3--|
B--3-3-3-3-3-3-----3--3-3-----3--3-3--|
G--0-0-0-0-0-0-----2--2-2-----0--0-0--|
D--0-0-0-0-0-0-----0--0-0-----2--2-2--|
A--2-2-2-2-2-2----------------3--3-3--|
E--3-3-3-3-3-3------------------------|


Bridge x1

e--3-3--3-3-3-----3-3--3-3-3-----3-3--3-3-3-----2-2--3-3-3-|
B--3-3--3-3-3-----3-3--3-3-3-----3-3--3-3-3-----3-3--3-3-3-|
G--0-0--0-0-0-----0-0--0-0-0-----0-0--0-0-0-----2-2--2-2-2-|
D--2-2--2-2-2-----2-2--2-2-2-----0-0--0-0-0-----0-0--0-0-0-|
A--2-2--2-2-2-----3-3--3-3-3-----2-2--2-2-2----------------|
E--0-0--0-0-0--------------------3-3--3-3-3----------------|


e--3-3--3-3-3-----3-3--3-3-3--|
B--3-3--3-3-3-----3-3--3-3-3--|
G--0-0--0-0-0-----0-0--0-0-0--|
D--2-2--2-2-2-----2-2--2-2-2--|
A--2-2--2-2-2-----3-3--3-3-3--|
E--0-0--0-0-0-----------------|

e--3-3-3-3-3-3-----2--2-3-----3--3-3--|
B--3-3-3-3-3-3-----3--3-3-----3--3-3--|
G--0-0-0-0-0-0-----2--2-2-----0--0-0--|
D--0-0-0-0-0-0-----0--0-0-----2--2-2--|
A--2-2-2-2-2-2----------------3--3-3--|
E--3-3-3-3-3-3------------------------|


e--3-3-3-3-3-3-----2--2-3-----3--3-3--|
B--3-3-3-3-3-3-----3--3-3-----3--3-3--|
G--0-0-0-0-0-0-----2--2-2-----0--0-0--|
D--0-0-0-0-0-0-----0--0-0-----2--2-2--|
A--2-2-2-2-2-2----------------3--3-3--|
E--3-3-3-3-3-3------------------------|


e--3-3-3-3-3-3-----2--2-3-----3--3-3--|
B--3-3-3-3-3-3-----3--3-3-----3--3-3--|
G--0-0-0-0-0-0-----2--2-2-----0--0-0--|
D--0-0-0-0-0-0-----0--0-0-----2--2-2--|
A--2-2-2-2-2-2----------------3--3-3--|
E--3-3-3-3-3-3------------------------|


e--3-3-3-3-3-3-----2--2-3-----3--3-3--|
B--3-3-3-3-3-3-----3--3-3-----3--3-3--|
G--0-0-0-0-0-0-----2--2-2-----0--0-0--|
D--0-0-0-0-0-0-----0--0-0-----2--2-2--|
A--2-2-2-2-2-2----------------3--3-3--|
E--3-3-3-3-3-3------------------------|


e--3-3--3-3-3-----3-3--3-3-3-----3-3--3-3-3-----2-2-2-2-2-2-2-3--|
B--3-3--3-3-3-----3-3--3-3-3-----3-3--3-3-3-----3-3-3-3-3-3-3-3--|
G--0-0--0-0-0-----0-0--0-0-0-----0-0--0-0-0-----2-2-2-2-2-2-2-2--|
D--2-2--2-2-2-----2-2--2-2-2-----2-2--2-2-2-----0-0-0-0-0-0-0-0--|
A--2-2--2-2-2-----3-3--3-3-3-----2-2--2-2-2----------------------|
E--0-0--0-0-0--------------------0-0--0-0-0----------------------|


Chorus x7

e--3-3-3-3-3-3-----2--2-3-----3--3-3--|
B--3-3-3-3-3-3-----3--3-3-----3--3-3--|
G--0-0-0-0-0-0-----2--2-2-----0--0-0--|
D--0-0-0-0-0-0-----0--0-0-----2--2-2--|
A--2-2-2-2-2-2----------------3--3-3--|
E--3-3-3-3-3-3------------------------|


Outro x1

e--3-3--3-3-3-----3-3--3-3-3-----3-3--3-3-3-----2---0---3--|
B--3-3--3-3-3-----3-3--3-3-3-----3-3--3-3-3-----3---3---3--|
G--0-0--0-0-0-----0-0--0-0-0-----0-0--0-0-0-----2---0---0--|
D--2-2--2-2-2-----2-2--2-2-2-----2-2--2-2-2-----0---2---0--|
A--2-2--2-2-2-----3-3--3-3-3-----2-2--2-2-2---------3---2--|
E--0-0--0-0-0--------------------0-0--0-0-0-------------3--|




Lyrics:

Here's another pity there's another chance
Try to learn a lesson but you can't.
If we can burn a city in futures and in past,
without a change our lives will never last.
We're going fast.

You can sit beside me when the world comes down, if it doesn't matter
then just turn around.
We don't need our bags and we can just leave town.
You van sit beside me when the world comes down.

What can we do better, when will we know how? A man says from a
sidewalk to a crowd.
If we can change the weather, if you wanted it yourself. If you can't
I guess we all need help, yeah, I need help.

(repeat chorus)

We say
We do
The lies
The truth
All I need is next to me.

Mmmmmmmmm we're going fast.

( chorus out)
Tap to rate this tab
 
# A B C D E F G H I J K L M N O P Q R S T U V W X Y Z