Song name
# A B C D E F G H I J K L M N O P Q R S T U V W X Y Z

All-american Rejects - Damn Girl tab

----------------------------------------------------------------------------
			     DAMN GIRL - All-American Rejects
----------------------------------------------------------------------------
Tabbed by:chris-james
Email:chris.lewis.james@hotmail.com

Tuning: standard

Intro and Verse (palm muted) 

e|---------------------------------------------------------------------------------|
B|---------------------------------------------------------------------------------|
G|---------------------------------------------------------------------------------|
D|------------------------------------10-10-10-10-10-10-10-10-8-8-8-8-8-8-8-8------|
A|----5-5-5-5-5-5-5-5-8-8-8-8-8-8-8-8-8--8--8--8--8--8--8--8--6-6-6-6-6-6-6-6------|
E|----3-3-3-3-3-3-3-3-6-6-6-6-6-6-6-6----------------------------------------------|

Pre chorus (the second guitar plays the verse again once)

!During the pre chorus mute all notes played on the G string!
         
e|-------------------------------------------------------------------------------------|
B|--8---8---8---8---10-11---11---11---11----10---10---10---10---13---13---13---13------|
G|----7---7---7---7-------10---10---10---10----7----7----7----7----10---10---10---10---|
D|-------------------------------------------------------------------------------------|
A|-------------------------------------------------------------------------------------|
E|-------------------------------------------------------------------------------------|
       
e|-----------------------------------------------|
B|--11---11---11---11---11---11---11---11--------|
G|-----10---10---10---10---10---10---10---10-----|
D|-----------------------------------------------|
A|-----------------------------------------------|
E|-----------------------------------------------|

Chorus - Guitar 1 - x2

e|-------------------------------------------------------------------------------------------------|
B|-11-11-11-11-11-11-11-11-10-10-10-10-10-10-10-10-11-11-11-11-11-11-11-11-11-11-11-11-11-11-11-11-|
G|-10-10-10-10-10-10-10-10-10-10-10-10-10-10-10-10-10-10-10-10-10-10-10-10-10-10-10-10-10-10-10-10-|
D|-8--8--8--8--8--8--8--8--8--8--8--8--8--8--8--8--8--8--8--8--8--8--8--8--8--8--8--8--8--8--8--8--|
A|-------------------------------------------------------------------------------------------------|
E|-------------------------------------------------------------------------------------------------|

2nd Guitar - x2

e|-------------------------------------------------------------------------------------------------|
B|-------------------------------------------------------------------------------------------------|
G|-------------------------------------------------8--8--8--8--8--8--8--8--8--8--8--8--8--8--8--8--|
D|-------------------------------------------------8--8--8--8--8--8--8--8--8--8--8--8--8--8--8--8--|
A|-------------------------------------------------6--6--6--6--6--6--6--6--6--6--6--6--6--6--6--6--|
E|-------------------------------------------------------------------------------------------------|

Solo Lick

e|------------------------------------------------------------------------|
B|-----------/6-------------/6-------------/6-----------------------------|
G|--------------7--------------7--------------7----8----8-8-8-8-7---5-/-7-|
D|----------------------------------------------------------------8-------|
A|----3-/-5----------3-/-5----------3-/-5---------------------------------|
E|------------------------------------------------------------------------|

e|--------------------------------------------------------------------|
B|--------------------------------------------------------------------|
G|-------------8--------------------10---8----------8-----------------|
D|---3----5----8---------------8----10---8----------8---(repeated)----|
A|---3----5----6---------------8----8----6----------6-----------------|
E|---1----3--------------------6--------------------------------------|


| /  slide up
| \  slide down
| h  hammer-on
| p  pull-off
| ~  vibrato
| +  harmonic
| x  Mute note
============================================================================
Tap to rate this tab
 
# A B C D E F G H I J K L M N O P Q R S T U V W X Y Z