Song name
# A B C D E F G H I J K L M N O P Q R S T U V W X Y Z

All-american Rejects - I Wanna Touch You tab

Pt.1

e|--------------------------------------7-7-7------------------------7--------------7-8-7---------|
b|---8h10-10-10---8h10-10-10---8h10-10----------8h10-10-10---8h10-10----8/10\7------------10--8---|
g|------------------------------------------------------------------------------------------------|
d|------------------------------------------------------------------------------------------------|
a|------------------------------------------------------------------------------------------------|
e|------------------------------------------------------------------------------------------------|

Pt.2

e|----------------7h8p7----7----------------------------------------------------------------------|
b|---10---7-------------8-----8/10----------------------------------------------------------------|
g|------------7-----------------------------------------------------------------------------------|
d|------------------------------------------------------------------------------------------------|
a|------------------------------------------------------------------------------------------------|
e|------------------------------------------------------------------------------------------------|
Tap to rate this tab
# A B C D E F G H I J K L M N O P Q R S T U V W X Y Z