Song name
# A B C D E F G H I J K L M N O P Q R S T U V W X Y Z

All-american Rejects - When The World Comes Down tab

-------------------------------------------------------------------------------
			     MONA LISA - All American Rejects
-------------------------------------------------------------------------------
Tabbed by: Snarl Rox!
Email: whyd_you_leave_the_keys_upon_the_table@hotmail.com

Tuning: Standard

Please rate and comment my tab
Thanks

Intro:

e|--------------------------------|
B|------3-0-----------------------|
G|----0-----0-----------0-2p0-----|
D|------------0h4h5---0-----------|
A|------------------0-------------|
E|--3-----------------------------|


Verse:

e|------------------------------------------------|
B|-------3-------3-------3------3-------3---------|
G|-----0-----------0-------0------0-------0-0-----|
D|---------0h4h5-----0-------0------0---------0---|
A|---------------------3--------------------------|
E|---3--------------------------------------------|

e|----------------------------------------0-------|
B|-------3-------3-------3------3-------3---0-----|
G|-----0-----------0-------0------0---------------|
D|---------0h4h5-----0-------0------0-------------|
A|---------------------3--------------------------|
E|---3--------------------------------------------|

e|------------------------------------------------|
B|-------3-------3-------3------3-------3---------|
G|-----0-----------0-------0------0-------0-0-----|
D|---------0h4h5-----0-------0------0---------0---|
A|---------------------3--------------------------|
E|---3--------------------------------------------|


Pre Chorus:
    Em7        D             Cadd9                D
e|--3-3-3-3-3--2-2-2--2-2-2--3-3-3-3-3-3-3-3-3-3--2-2-3----|
B|--3-3-3-3-3--3-3-3--3-3-3--3-3-3-3-3-3-3-3-3-3--3-3-3----|
G|--0-0-0-0-0--2-2-2--2-2-2--0-0-0-0-0-0-0-0-0-0--2-2-2----| 
D|--2-2-2-2-2--0-0-0--0-0-0--2-2-2-2-2-2-2-2-2-2--0-0-0----|
A|--2-2-2-2-2----------------3-3-3-3-3-3-3-3-3-3-----------|
E|--0-0-0-0-0----------------------------------------------|


Chorus: _x4_
     G            D      Cadd9
e|---3-3-3-3-3-3--2-2-2--3-3-3----|
B|---3-3-3-3-3-3--3-3-3--3-3-3----|
G|---0-0-0-0-0-0--2-2-2--0-0-0----|
D|---0-0-0-0-0-0--0-0-0--2-2-2----|
A|---2-2-2-2-2-2---------3-3-3----|
E|---3-3-3-3-3-3------------------|


Intro:

e|--------------------------------|
B|------3-0-----------------------|
G|----0-----0-----------0-2p0-----|
D|------------0h4h5---0-----------|
A|------------------0-------------|
E|--3-----------------------------|


Verse 2: _x2_
    G          D          Cadd9
e|--2-2-2-2-2--2-2-2-2-2--3-3-3-3-3-3-3-3-3-3----|
B|--2-2-2-2-2--3-3-3-3-3--3-3-3-3-3-3-3-3-3-3----|
G|--0-0-0-0-0--2-2-2-2-2--0-0-0-0-0-0-0-0-0-0----|
D|--0-0-0-0-0--0-0-0-0-0--2-2-2-2-2-2-2-2-2-2----|
A|--2-2-2-2-2-------------3-3-3-3-3-3-3-3-3-3----|
E|--3-3-3-3-3------------------------------------|

   G          D          Cadd9               D  
e--2-2-2-2-2--2-2-2-2-2--3-3-3-3-3-3-3-3-3-3--2-2-3----|
B--2-2-2-2-2--3-3-3-3-3--3-3-3-3-3-3-3-3-3-3--3-3-3----|
G--0-0-0-0-0--2-2-2-2-2--0-0-0-0-0-0-0-0-0-0--2-2-2----|
D--0-0-0-0-0--0-0-0-0-0--2-2-2-2-2-2-2-2-2-2--0-0-0----|
A--2-2-2-2-2-------------3-3-3-3-3-3-3-3-3-3-----------|
E--3-3-3-3-3-------------------------------------------|


Chorus: _x4_
     G             D      Cadd9
e|---3-3-3--3-3-3--2-2-2--3-3-3----|
B|---3-3-3--3-3-3--3-3-3--3-3-3----|
G|---0-0-0--0-0-0--2-2-2--0-0-0----|
D|---0-0-0--0-0-0--0-0-0--2-2-2----|
A|---2-2-2--2-2-2---------3-3-3----|
E|---3-3-3--3-3-3------------------|


Bridge:
    Em7        Cadd9      G          D    Dsus4
e|--3-3-3-3-3--3-3-3-3-3--3-3-3-3-3--2-2--3-3-3----|
B|--3-3-3-3-3--3-3-3-3-3--3-3-3-3-3--3-3--3-3-3----|
G|--0-0-0-0-0--0-0-0-0-0--0-0-0-0-0--2-2--2-2-2----|
D|--2-2-2-2-2--2-2-2-2-2--0-0-0-0-0--0-0--0-0-0----|
A|--2-2-2-2-2--3-3-3-3-3--2-2-2-2-2----------------|
E|--0-0-0-0-0-------------3-3-3-3-3----------------|

    Em7        Cadd9
e|--3-3-3-3-3--3-3-3-3-3----|
B|--3-3-3-3-3--3-3-3-3-3----|
G|--0-0-0-0-0--0-0-0-0-0----|
D|--2-2-2-2-2--2-2-2-2-2----|
A|--2-2-2-2-2--3-3-3-3-3----|
E|--0-0-0-0-0---------------|

    G            D      Cadd9
e|--3-3-3-3-3-3--2-2-2--3-3-3----|\
B|--3-3-3-3-3-3--3-3-3--3-3-3----| \
G|--0-0-0-0-0-0--2-2-2--0-0-0----|  \ _x4_
D|--0-0-0-0-0-0--0-0-0--2-2-2----|  / 
A|--2-2-2-2-2-2---------3-3-3----| /
E|--3-3-3-3-3-3------------------|/

    Em7        Cadd9      Em7        D
e|--3-3-3-3-3--3-3-3-3-3--3-3-3-3-3--2-2-2-2-2-2-2-2----|
B|--3-3-3-3-3--3-3-3-3-3--3-3-3-3-3--3-3-3-3-3-3-3-3----|
G|--0-0-0-0-0--0-0-0-0-0--0-0-0-0-0--2-2-2-2-2-2-2-2----|
D|--2-2-2-2-2--2-2-2-2-2--2-2-2-2-2--0-0-0-0-0-0-0-0----|
A|--2-2-2-2-2--3-3-3-3-3--2-2-2-2-2---------------------|
E|--0-0-0-0-0-------------0-0-0-0-0---------------------|

Chorus: _x8_
     G             D      Cadd9
e|---3-3-3--3-3-3--2-2-2--3-3-3----|
B|---3-3-3--3-3-3--3-3-3--3-3-3----|
G|---0-0-0--0-0-0--2-2-2--0-0-0----|
D|---0-0-0--0-0-0--0-0-0--2-2-2----|
A|---2-2-2--2-2-2---------3-3-3----|
E|---3-3-3--3-3-3------------------|


on the last time through it goes like this
    Em7        Cadd9      Em7
e|--3-3-3-3-3--3-3-3-3-3--3-3-3-3-3----|
B|--3-3-3-3-3--3-3-3-3-3--3-3-3-3-3----|
G|--0-0-0-0-0--0-0-0-0-0--0-0-0-0-0----|
D|--2-2-2-2-2--2-2-2-2-2--2-2-2-2-2----|
A|--2-2-2-2-2--3-3-3-3-3--2-2-2-2-2----|
E|--0-0-0-0-0-------------0-0-0-0-0----|


it finishes like this
    D  Cadd9 G
e|--2--3--3----|
B|--3--3--3----|
G|--2--0--0----|
D|--0--2--0----|
A|-----3--2----|
E|--------3----|


Please comment if there's any mistakes 
Thanks


Heres the lyrics:

Here's another pity there's another chance
You tried to learn a lesson but you can't

If we could burn a city in futures and in past
Without a change our lives will never last
We're going fast

You can sit beside me when the world comes down
If it doesn't matter than just turn around
We don't need our bags and we can just leave town
You can sit beside me when the world comes down

What can we do better, when will we know how?
A man says from the sidewalk to the crowd
If you can't change the weather, if you wanted to yourself
Well if you can't I guess we all need help
Cause i need help

You can sit beside me when the world comes down
If it doesn't matter than just turn around
We don't need our bags
And we can just leave town
You can sit beside me when the world comes down

We say,
We do,
The lies, the truth
And all i need is next to me

We're going fast

You can sit beside me when the world comes down
If it doesn't matter than just turn around
You be the queen, and i'll be your clown
You can sit beside me when the world comes down
You can sit beside me when the world comes down
Tap to rate this tab
 
# A B C D E F G H I J K L M N O P Q R S T U V W X Y Z