Song name
# A B C D E F G H I J K L M N O P Q R S T U V W X Y Z

All-american Rejects - Gives You Hell Acoustic tab

-------------------------------------------------
Gives You Hell (Acoustic) - All American Rejects
-------------------------------------------------

Tabbed by: aBeLeT

Email: eatdrinknap@aim.com

Tuning: Standard 

Notes: This tab is based on the live radio acoustic version, seen here: 
http://www.youtube.com/watch?v=MhfOS0qiS70&fmt=18. 
Capo the third fret.  All chords and or notes are relative to the capo.
The order of the song is explained at the end of the tab.  
Please comment and rate.  Happy playing!

Intro/Verse/First Chorus 

e|---------------------------------------------------------------|
B|-----5-(5)------5-(5)-----5-(5)-----5-(5)----------------------|
G|-----4-(4)------4-(4)-----4-(4)-----4-(4)----------------------|
D|-2-2-----------------------------------------------------------|
A|-----------4-4-------0-0-------0-0-----------------------------|
E|---------------------------------------------------------------|

Transition/Turnaround 

e|---------------------------------------------------------------|
B|---------------------------------------------------------------|
G|---------------------------------------------------------------|
D|---------------------------------------------------------------|
A|-0-------------------------------------------------------------|
E|---4-2---------------------------------------------------------|

Interlude                      

e|---------------------------------------------------------------|
B|----------2~----5~----0~---------------------------------------|
G|----1~---2-----6-----2-----------------------------------------|
D|---2----2-----6-----2------------------------------------------|
A|--2----0-----4-----0-------------------------------------------|
E|-0-------------------------------------------------------------|

Chorus 

e|-0-0-x---x-x-x---x-x-x---x-x-x---------------------------------|
B|-0-0-x---x-x-x---2-2-x---2-2-x---------------------------------|
G|-1-1-x---6-6-x---2-2-x---2-2-x---------------------------------|
D|-2-2-x---6-6-x---2-2-x---2-2-x---------------------------------|
A|-2-2-x---4-4-x---0-0-x---0-0-x---------------------------------|
E|-0-0-x---x-x-x---x-x-x---x-x-x---------------------------------|

Bridge 

e|---------------------------------------------------------------|
B|----2~---5~---2~----5~----2~----5~----2~---5~--2~--------------|
G|---2----6----2-----6-----2-----6-----2----6----2~--------------|
D|--2----6----2-----6-----2-----6-----2----6-----2~--------------|
A|-0----4----0-----4-----0-----4-----0----4------0~--------------|
E|---------------------------------------------------------------|


Song Order:

Intro x 2
Verse x 4
Turnaround x 1
First Chorus x 2
Turnaround x 1
Verse x 4
Interlude x 1
Chorus x 4
Intro x 2
Verse x 2
Interlude x 1
Chorus x 4
Bridge x 1

[Snapping Chorus]

Chorus x 4

This is my first tab, so please comment and rate.  
Feel free to submit corrections, especially on the Interlude and Bridge.  
I hope the ordering makes sense..

Happy Playing!

-----------------------------------------------

| /  slide up
| \  slide down
| h  hammer-on
| p  pull-off
| ~  let ring
| +  harmonic
| x  Mute note
Tap to rate this tab
# A B C D E F G H I J K L M N O P Q R S T U V W X Y Z