Song name
# A B C D E F G H I J K L M N O P Q R S T U V W X Y Z

All-american Rejects - Back To Me tab

----------------------------------------------------------------------------
			     Back To Me - All-American Rejects
----------------------------------------------------------------------------
Tabbed by:osXtiger
Email: X_PLANE8@hotmail.com

Tuning: EADGBe (standard)

e|----x--x------------------------------------------------------------------|
B|----x--x------------------------------------------------------------------|
G|----x--x------------------------------------------------------------------|
D|----x--x------9b(11)r(9)b(11)r(9)-7~-7h9p7--------7---6\2-2---------------|
A|----x--x--9-7------------------------------9b(11)---9--------5p4----2-----|
E|----x--x------------------------------------------------------------------|

e|--------------------------------------------------------------------------|
B|--------------------------------------------------------------------------|
G|------------------------------6/7-7-7-7/9-9-9-9/11-11-11-11-11-11-11-11/13|
D|--------------------------------------------------------------------------|
A|------------------------------4/5-5-5-5/7-7-7-7/9--9--9--9--9--9--9--9-/11|
E|-4b(5)r-b-r-b-r--2--0-----------------------------------------------------|


e|--------------------------------------------------------------------------|
B|--------------------------------------------------------------------------|
G|-13-13-13/14-14-14-14/16-16-16-16\14-14-14----16b(17)r-b-r--14-14h16------|
D|---------------------------------------------------------------------18---|
A|-11-11-11/12-12-12-12/14-14-14-14\12-12-12--------------------------------|
E|--------------------------------------------------------------------------|


e|----------------------------------------------------------0---------------|
B|-------------17----15----14\------------------------------0---------------|
G|----------14----14----14-------/9----7----6-/-7-\-6-\-4---1---------------|
D|--14/16~--------------------------------------------------2---------------|
A|-------------------------------/7----5----4-/-5-\-4-\-2---2---------------|
E|----------------------------------------------------------0---------------|
Tap to rate this tab
# A B C D E F G H I J K L M N O P Q R S T U V W X Y Z