Song name
# A B C D E F G H I J K L M N O P Q R S T U V W X Y Z

All-american Rejects - I Wanna tab

-------------------------------------------------------------------------------
                      I Wanna - The All-American Rejects
-------------------------------------------------------------------------------

Album: When The World Comes Down

Tabbed by: Ian Britz
Email: Bookworm_nai_868@yahoo.com
Tuning: Standard

Key
*******************
Hammer-on: h
Pull-off : p
Dead Note: x
Mute Note: *
Slide    : /
Let Ring : ~
*******************



I'm certain that this is correct. 
If you get confused, just check the time marks. You should be able to
figure out where to play the different parts just by listening to the
song, though. Questions, comments or marriage proposals can be sent to my
email.


 
Intro/Verse 1

I'm not sure exactly how they make this sound, but if you 
use a tremolo effect on a very high frequency you can mimic it.
 (0:08)   (0:14)
e|--(15)--|--(15)-----(10)-----(8)-----(15)-----|
B|--------|-------------------------------------|
G|--------|-------------------------------------|Repeat the
D|--------|-------------------------------------|second measure
A|--------|-------------------------------------|
E|--------|-------------------------------------|

Guitar 1 (Distorted)
 (0:14)                                                        (0:25)
e|--3-3---3-3------2-2---2-2------0-0---0-0------3-3---3-3------xxxx----|
B|--3-3---3-3------3-3---3-3------1-1---1-1------3-3---3-3------xxxx----|
G|--0-0---0-0------2-2---2-2------0-0---0-0------0-0---0-0------xxxx----|x2
D|--0-0---0-0------0-0---0-0------2-2---2-2------0-0---0-0------xxxx----|
A|--2-2---2-2------x-x---x-x------3-3---3-3------2-2---2-2------xxxx----|
E|--3-3---3-3------x-x---x-x------x-x---x-x------3-3---3-3------xxxx----|


 
Pre-Chorus
Guitar 1 (Distorted)
 (0:37)
e|----------------------------------------------------------------------|
B|----------------------------------------------------------------------|
G|--9-x9-x9-9-x9-x9-----------------9-x9-x9-9-x9-x9-7-77777777777777----|
D|--9-x9-x9-9-x9-x9-5-x5-x5-5-x5-x5-9-x9-x9-9-x9-x9-7-77777777777777----|
A|--7-x7-x7-7-x7-x7-5-x5-x5-5-x5-x5-7-x7-x7-7-x7-x7-5-55555555555555----|
E|------------------3-x3-x3-3-x3-x3-------------------------------------|


 
Chorus

The tremolo effect comes back in the chorus like this:
(0:49)
e|--(15)-----(12)-----(10)-----(8)------------|
B|--------------------------------------------|
G|--------------------------------------------|x2
D|--------------------------------------------|
A|--------------------------------------------|
E|--------------------------------------------|

Guitar 1 & 2 (Distorted)
 (0:49)
e|-----------------------------------------------------------------------|
B|-----------------------------------------------------------------------|
G|------------------------------------7777777777777777-5555555555555555--|x2
D|--5555555555555555-2222222222222222-7777777777777777-5555555555555555--|
A|--5555555555555555-2222222222222222-5555555555555555-3333333333333333--|
E|--3333333333333333-0000000000000000------------------------------------|


 
Verse 2

I think this is a keyboard, but you can play the part on guitar.
 (1:13)
e|--------|--------|--------|--------|--------|
B|--------|--------|--------|--------|--------|
G|--------|--14----|--12----|--------|--12----|
D|--12----|----12--|----10--|--12----|----10--|
A|----10--|--------|--------|----10--|--------|
E|--------|--------|--------|--------|--------|
     x8       x8       x8       x4       x4

Guitar 1 (Distorted)
 (1:13)
e|--3-3---3-3------2-2---2-2------0-0---0-0------3-3---3-3------|
B|--3-3---3-3------3-3---3-3------1-1---1-1------3-3---3-3------|
G|--0-0---0-0------2-2---2-2------0-0---0-0------0-0---0-0------|
D|--0-0---0-0------0-0---0-0------2-2---2-2------0-0---0-0------|
A|--2-2---2-2------x-x---x-x------3-3---3-3------2-2---2-2------|
E|--3-3---3-3------x-x---x-x------x-x---x-x------3-3---3-3------|

Guitar 2 (Distorted)
 (1:18)
e|----------------------------------------|
B|----------------------------------------|
G|----------------------------------------|
D|--5555555555555555----------------------|
A|--3333333333333333-5555555555555555-----|
E|-------------------3333333333333333-----|
    **************** ****************


Pre-Chorus 2

Guitar 1 & 2 (Distorted)
(1:23)
e|----------------------------------------------------------------------|
B|----------------------------------------------------------------------|
G|--9-x9-x9-9-x9-x9-----------------9-x9-x9-9-x9-x9-7-77777777777777----|
D|--9-x9-x9-9-x9-x9-5-x5-x5-5-x5-x5-9-x9-x9-9-x9-x9-7-77777777777777----|
A|--7-x7-x7-7-x7-x7-5-x5-x5-5-x5-x5-7-x7-x7-7-x7-x7-5-55555555555555----|
E|------------------3-x3-x3-3-x3-x3-------------------------------------|
      


Chorus

Tremolo Effect
(1:37)
e|--(15)-----(12)-----(10)-----(8)------------|
B|--------------------------------------------|
G|--------------------------------------------|x2
D|--------------------------------------------|
A|--------------------------------------------|
E|--------------------------------------------|

Guitar 1 & 2 (Distorted)
 (1:37)
e|-----------------------------------------------------------------------|
B|-----------------------------------------------------------------------|
G|------------------------------------7777777777777777-5555555555555555--|x2
D|--5555555555555555-2222222222222222-7777777777777777-5555555555555555--|
A|--5555555555555555-2222222222222222-5555555555555555-3333333333333333--|
E|--3333333333333333-0000000000000000------------------------------------|


 
Solo

Guitar 1 (Distorted)
(2:00)
e|----------------------------7~-7~--------------------7-8-7-------|
B|--8-10-10-8-10-10-8-10~-10~-------8-10-8-10--10b--8--------10-8--|
G|-----------------------------------------------------------------|
D|-----------------------------------------------------------------|
A|-----------------------------------------------------------------|
E|-----------------------------------------------------------------|

e|------------8-7h8p7---7~--------------|
B|--10~-7~-----------8-----8~-8/10~-----|
G|---------7~---------------------------|
D|--------------------------------------|
A|--------------------------------------|
E|--------------------------------------|

Guitar 2 (Distorted)
 (2:00)
e|-----------------------------------------------------------------------|
B|-----------------------------------------------------------------------|
G|------------------------------------7777777777777777-5555555555555555--|
D|--5555555555555555-2222222222222222-7777777777777777-5555555555555555--|
A|--5555555555555555-2222222222222222-5555555555555555-3333333333333333--|
E|--3333333333333333-0000000000000000------------------------------------|


 
Bridge

Guitar 1 & 2 (Distorted)
 (2:13)
e|-------------------------------------------------------------------------|
B|-------------------------------------------------------------------------|
G|-------------------------------------------------------------------------|
D|--2222222222222222-5555555555555555-2222222222222222-5555555555555555----|
A|--2222222222222222-5555555555555555-2222222222222222-5555555555555555----|
E|--0000000000000000-3333333333333333-0000000000000000-3333333333333333----|

Guitar 3 (Distorted)
 (2:22)
e|-----------|
B|--0h1/10~--|
G|-----------|
D|-----------|
A|-----------|
E|-----------|


 
Pre-Chorus 3

Guitar 1 (Distorted)
 (2:25)
e|----------------------------------------------------------------------|
B|----------------------------------------------------------------------|
G|--9~------9~----------------------9-x9-x9-9-x9-x9-7-7777777777777777--|
D|--9~------9~------5~------5~------9-x9-x9-9-x9-x9-7-7777777777777777--|
A|--7~------7~------5~------5~------7-x7-x7-7-x7-x7-5-5555555555555555--|
E|------------------3~------3~------------------------------------------|
                                     
Guitar 2 (Distorted)
                                  (2:31)
e|----------------------------------------------------------------------|
B|----------------------------------------------------------------------|
G|----------------------------------9-x9-x9-9-x9-x9-7-7777777777777777--|
D|----------------------------------9-x9-x9-9-x9-x9-7-7777777777777777--|
A|----------------------------------7-x7-x7-7-x7-x7-5-5555555555555555--|
E|----------------------------------------------------------------------|
              

                          
Pre-Chorus Fill

Tremolo Effect
 (2:37)
e|--(15)--|
B|--------|
G|--------|
D|--------|
A|--------|
E|--------|

Guitar 1
 (2:39)
e|--------|
B|--------|
G|--------|(Pick slide)
D|--------|
A|--x\\\--|
E|--x\\\--|
 


Chorus

Tremolo Effect                (Don't play the
(2:40)                         second time through)          
e|-----(12)-----(10)-----(8)-----|--(15)--|
B|-------------------------------|--------|
G|-------------------------------|--------|x2
D|-------------------------------|--------|
A|-------------------------------|--------|
E|-------------------------------|--------|

Guitar 1 & 2 (Distorted)                              (Don't play the
 (2:40)                                                second time through)
e|----------------------------------------------------|------------------|
B|----------------------------------------------------|------------------|
G|------------------7777777777777777-5555555555555555-|------------------|x2
D|-2222222222222222-7777777777777777-5555555555555555-|-5555555555555555-|
A|-2222222222222222-5555555555555555-3333333333333333-|-5555555555555555-|
E|-0000000000000000-----------------------------------|-3333333333333333-|


 
Chorus 2

Guitar 1 (Distorted)
 (3:00)
e|----------------------------7~-7~--------------------7-8-7-------|
B|--8-10-10-8-10-10-8-10~-10~-------8-10-8-10--10b--8--------10-8--|
G|-----------------------------------------------------------------|
D|-----------------------------------------------------------------|
A|-----------------------------------------------------------------|
E|-----------------------------------------------------------------|

e|------------8-7h8p7---7~--------------|
B|--10~-7~-----------8-----8~-8/10~-----|
G|---------7~---------------------------|x2
D|--------------------------------------|
A|--------------------------------------|
E|--------------------------------------|

Guitar 2 (Distorted)
 (3:00)
e|-----------------------------------------------------------------------|
B|-----------------------------------------------------------------------|
G|------------------------------------7777777777777777-5555555555555555--|x2
D|--5555555555555555-2222222222222222-7777777777777777-5555555555555555--|
A|--5555555555555555-2222222222222222-5555555555555555-3333333333333333--|
E|--3333333333333333-0000000000000000------------------------------------|



End

Guitar 1 & 2
 (3:24)
e|------------|
B|------------|
G|------------|
D|--5~~~\-----|
A|--5~~~\-----|
E|--3~~~\-----|

Tap to rate this tab
# A B C D E F G H I J K L M N O P Q R S T U V W X Y Z