Song name
# A B C D E F G H I J K L M N O P Q R S T U V W X Y Z

All-american Rejects - The Poison tab

Tuning: Half Step Down

Intro:   D                 Bm7            A               G
eb|----------------2-----|--------2-|-------------0-----|---------0-|
Bb|----3-----3h2-----2---|----3-----|----3---3h2----2---|----3------|
Gb|---2-2-------2------2-|---2-2----|---2-2------2----2-|---0-0-----|
Db|-0-----0--0--0--------|-------4--|-------2-----------|-------2---|
Ab|----------------------|-2--------|-0-----------------|-----------|
Eb|----------------------|----------|-------------------|-3---------|

Verse:
          D                       G
eb|-------------2------|    |---------3-------|
Bb|----3----3------2---|    |----3-------3----|
Gb|---2-2-----2------2-| 2x |---0-0-----0-0---| 2x
Db|-0-----0-0-0--------|    |-------0-------0-|
Ab|--------------------|    |-----------------|
Eb|--------------------|    |-3---------------|
\_______________________________________________/
                          2x

Chorus: (and you fall down...)
                             G
eb|----------------------------3-------|
Bb|----3----3----3----3----3------3----|
Gb|---2----2----2----2----0-0----0-0---| 3x
Db|-----------0--------------0-------0-|
Ab|-2----4---------0-------------------|
Eb|---------------------3--------------|

     D/F#            G
eb|-------0------|--------|
Bb|----3-----3---|----3---|
Gb|---2-2---2-2--|---0-0--|
Db|------0-----0-|------0-|
Ab|--------------|--------|
Eb|-2------------|-3------|

Repeat Intro

Repeat Verse and Chorus

Outro: (hmmmmmmm...) -> not sure about this part
eb|---------------|-------------|---------------|--------------|
Bb|----3------3---|---3-----3---|----3------3---|----3-----3---|
Gb|---2-2----2-2--|--0-0---0-0--|---2-2----2-2--|---2-2---2-2--|
Db|-0----4-0----4-|-----4-----4-|-0----4-0----4-|------4-----4-|
Ab|---------------|-------------|---------------|-4-----4------|
Eb|---------------|-3-----3-----|---------------|--------------|

eb|---------------|-------------|--------------------------------0----|
Bb|----3------3---|---3-----3---|----2---3h2--0---------2---3h2----2--|
Gb|---2-2----2-2--|--0-0---0-0--|--2--2------2--2-----2--2------2---2-|
Db|-0----4-0----4-|-----4-----4-|-------2--------2---------2----------|
Ab|---------------|-------------|-0-----------------0-----------------|
Eb|---------------|-3-----3-----|-------------------------------------|

Repeat Chorus (and you fall down...)

(...if you could i'd lose everything...)
Bridge:   
                               Em    Em    Em    Em
(...if you could i'd lose everything...)
Em                  B                     D                    Em
can't you see their faces melting as the sun rains from their eyes
Em                  B                     D                    Em
ooh their gonna keep your head with the hearts that you hang behind
    F#                      G
look at yourself, look in the mirror don't you see a lie
             Em                 Em         Em
that you tell yourself again a thousand times
Em              Em                       Em
all the truth that makes us laugh will make you cry
            A
you wanna die, no

Chorus: this chorus is different
(and you fall down......)     
eb|----------------------------3------|
Bb|----3---3----3----3----3-------3---|
Gb|---2---2----2----2----0-0-----0-0--| 3x
Db|-0------------------------0------0-|
Ab|-----4----2----0-------------------|
Eb|--------------------3--------------|

     D/F#            G      G (hold)
eb|-------0------|--------|-3-|
Bb|----3-----3---|----3---|-3-|
Gb|---2-2---2-2--|---0-0--|-0-|
Db|------0-----0-|------0-|-0-|
Ab|--------------|--------|-2-|
Eb|-2------------|-3------|-3-|
Tap to rate this tab
 
# A B C D E F G H I J K L M N O P Q R S T U V W X Y Z