Guitaretab - guitar tabs
Song name
# A B C D E F G H I J K L M N O P Q R S T U V W X Y Z

All-american Rejects - Swing Swing Swing tab

*this song uses very heavy distortion

Intro:2x 
e----------------------------------------
b----------------------------------------
g----------------------------------------
d-5-5--5---5-5--5---5-5--5---10-10--10---
a-5-5--5---5-5--5---5-5--5---10-10--10---
E-3-3--3---2-2-2---0-0-0---8--8--8----


Chorus:
e----------------------------------------------------------------------
b----------------------------------------------------------------------
g-------------------7-7-7-7-7-7-7-7---------------------5-5-5-5-5-5-5-5
d-5-5-5-5-5-5-5-5---7-7-7-7-7-7-7-7---2-2-2-2-2-2-2-2---5-5-5-5-5-5-5-5
a-5-5-5-5-5-5-5-5---5-5-5-5-5-5-5-5---2-2-2-2-2-2-2-2---3-3-3-3-3-3-3-3
E-3-3-3-3-3-3-3-3---------------------0-0-0-0-0-0-0-0------------------


Verse:(Plam Mute (a little diffrent) but easy)
e--------------------------------------
b-----8-8--8-----8-8--8-----8-8--8-----
g-----7-7--7-----7-7--7-----7-7--7-----
d-----5-5--5-----5-5--5-----5-5--5-----
a--------------------------------------
E--------------------------------------


Interlude:(palm muted)
e----------------------------------------------------------------------
b----------------------------------------------------------------------
g-------------------------------------------------------5-5-5-5-5-5-5-5
d-5-5-5-5-5-5-5-5---5-5-5-5-5-5-5-5---2-2-2-2-2-2-2-2---5-5-5-5-5-5-5-5
a-5-5-5-5-5-5-5-5---5-5-5-5-5-5-5-5---2-2-2-2-2-2-2-2---3-3-3-3-3-3-3-3
E-3-3-3-3-3-3-3-3---3-3-3-3-3-3-3-3---0-0-0-0-0-0-0-0------------------
Did you think that I would cry on the phone, Do you know what it feels..

* hold each of them out
e---------------------
b---------------------
g---------------------
d---7---10--5----
a---7---10--5----
E---9---8---3----
I'll find someone new....(then go right to the Chorus)

Solo:
e--------------------------------------15------14-12--------------------
b8/15-15-15-15-15-15-13-12--12-12-13--------12------12-12/13------------
g-----------------------------------12----------------------------------
d-----------------------------------------------------------------------
a-----------------------------------------------------------------------
E-----------------------------------------------------------------------

e----------------------------------------15-----------------------------
b-15-15-15-15-15-15--13-12--13-12--13-----------12----------------------
g-------------------------------------12------12---11-12-14-------------
d-----------------------------------------------------------------------
a-----------------------------------------------------------------------
E-----------------------------------------------------------------------

Outro:
e----------------------------------------------------------------------
b----------------------------------------------------------------------
g-9-9--7-7--------------------------------------------9-9--7-7---------
d-9-9--7-7---9---------------10-----------------------9-9--7-7---------
a-7-7--5-5---9---------------10-----------------------7-7--5-5---------
E------------7---------------8-----------------------------------------
  Bury me  you thought your problems were gone        Carry  me

e----------------------------------------------------------------------
b----------------------------------------------------------------------
g----------------------------------------------------------------------
d---10-10-10-10-10-10-10-10-10-10-10-10-10-10-10-10--------------------
a---10-10-10-10-10-10-10-10-10-10-10-10-10-10-10-10--------------------
E---8--8--8--8--8--8--8--8--8--8--8--8--8--8--8--8---------------------
       away away away

*Just finish playing forever
[ Tab from: http://www.guitaretab.com/a/all-american-rejects/25521.html ]
Related for Swing Swing Swing tab