Song name
# A B C D E F G H I J K L M N O P Q R S T U V W X Y Z

All-american Rejects - Night Drive tab

()=harmonic note
X=mute

Intro: (Lots of distortion)
E|--------------------------------------------------|
B|---------------(7)(7)-----------------------------|
G|---(5)(5)----(5)------55--------------------------|
D|-7--------22----------55-(5)(5)(5)-55------(3)----|
A|-7--------22----------33-----------55-(5)(5)------|
E|-5--------00-----------------------33-------------|

0:12
E|-------------------------------------------|
B|-------------------------------------------|
G|---------------------5-5--555--------------| x2
D|-7-7--777--2-2--222--3-3--333--5-5-555-----|
A|-7-7--777--2-2--222--3-3--333--5-5-555-----|
E|-5-5--555--0-0--000------------3-3-333-----|

0:28 (In the background)
E|-------------------------------------------|
B|------10-----8----8--10\5------------------|
G|---9-------9----9--------------------------|
D|-10-10----9-9--9-9-------------------------|
A|-------------------------------------------|
E|-------------------------------------------|

0:41
E|---------------------------------------|
B|---------------------------------------|
G|-------------------55555555------------|
D|-77777777-77777777-55555555-55555555---|
A|-77777777-77777777-33333333-55555555---|
E|-55555555-55555555----------33333333---|
PM ...................................

E|---------------------------------------|
B|---------------------------------------|
G|-------------------55555555-77777777---|
D|-77777777-77777777-55555555-77777777---|
A|-77777777-77777777-33333333-55555555---|
E|-55555555-55555555---------------------|
PM ...................................

0:53
E|--------x-------|
B|--------x-------|
G|-x-x-xx-x-------|
D|-x-x-xx-x-------|
A|-x-x-xx-x-------|
E|--------x-------|


0:56
E|-------------------------------------------|
B|-------------------------------------------|
G|---------------------5-5--555--------------| x2
D|-7-7--777--2-2--222--3-3--333--5-5-555-----|
A|-7-7--777--2-2--222--3-3--333--5-5-555-----|
E|-5-5--555--0-0--000------------3-3-333-----|

1:09 (I couldn't get this part exact but I did get it close)
E|-----------------------------------|
B|-55-55-5-55-55-5-33-33-3-55-55-5\--|
G|-55-55-5-44-44-4-44-44-4-44-44-4\--|
D|-----------------------------------|
A|-----------------------------------|
E|-----------------------------------|

1:15 
E|---------------------------------------|
B|---------------------------------------|
G|---------------------------------------|
D|-77777777-22222222-55555555-22222222---| x2
A|-77777777-22222222-55555555-22222222---|
E|-55555555-00000000-33333333-00000000---|
PM ...................................

1:42
E|-------------------------------------------|
B|-------------------------------------------|
G|---------------------5-5--555--------------| x4
D|-7-7--777--2-2--222--5-5--555--5-5-555-----|
A|-7-7--777--2-2--222--3-3--333--5-5-555-----|
E|-5-5--555--0-0--000------------3-3-333-----|

1:54 & 2:01
E|-16-16-17\--|
B|-16-16-17\--|
G|------------|
D|------------|
A|------------|
E|------------|

2:12 (possibly with delay)
E|-------------------------------------------|
B|------10-----8----8--10\5------------------|
G|---9-------9----9--------------------------|
D|-10-10----9-9--9-9-------------------------|
A|-------------------------------------------|
E|-------------------------------------------|

2:24
E|-----------------------------------|
B|-55-55-5-55-55-5-33-33-3-55-55-5\--|
G|-55-55-5-44-44-4-44-44-4-44-44-4\--|
D|-----------------------------------|
A|-----------------------------------|
E|-----------------------------------|

2:37-2:50
E|-16-16-17\--|
B|-16-16-17\--|
G|------------|
D|------------|
A|------------|
E|------------|

2:40
E|--------------------------------------------------|
B|---------------(7)(7)-----------------------------|
G|---(5)(5)----(5)------55--------------------------| x2
D|-7--------22----------55-(5)(5)(5)-55------(3)----|
A|-7--------22----------33-----------55-(5)(5)------|
E|-5--------00-----------------------33-------------|

Outro
E|-------------------------------------------|
B|-------------------------------------------|
G|---------------------5-5--555--------------| x5
D|-7-7--777--2-2--222--3-3--333--5-5-555-----|
A|-7-7--777--2-2--222--3-3--333--5-5-555-----|
E|-5-5--555--0-0--000------------3-3-333-----|

End on this:
E|---|
B|---|
G|---|
D|-7\|
A|-7\|
E|-5\|
Tap to rate this tab
 
# A B C D E F G H I J K L M N O P Q R S T U V W X Y Z