Song name
# A B C D E F G H I J K L M N O P Q R S T U V W X Y Z

All-american Rejects - Beekeepers Daughter tab

Enjoy this beginner solo. Nice and fluid, with some Wah-Wah



Gtr Solo: GO!
e|----------------------------------------------------------------------------13------------|
B|------10------------------------------------------------10-11\13-13p10-13b15--15b13p11/10-|
G|-12b14--14r12p10-------12-----------------10-12b~-10~-12----------------------------------|
D|------------------12\14--14p12/10----10h12------------------------------------------------|
A|---------------------------------12-------------------------------------------------------|
E|------------------------------------------------------------------------------------------|

Gtr Solo: Ending runs
e|-------------------------------------------------------|
B|-13p11p10h11p10--10------------------------------------|
G|---------------12--12-10------------------10--10-12-10-|
D|------------------------12-10--------10h12--12---------|
A|-----------------------------12-10h12------------------|
E|-------------------------------------------------------|
Tap to rate this tab
# A B C D E F G H I J K L M N O P Q R S T U V W X Y Z