Song name
# A B C D E F G H I J K L M N O P Q R S T U V W X Y Z

All-american Rejects - Somedays Gone tab


-------------------------------------------------------------------------------
SOMEDAYíS GONE - All American Rejects
-------------------------------------------------------------------------------
Tabbed by: abridge678

Tuning: Standard

Intro Lead
e|------|--------------------------------------------------------------------| Play 
B|------|----11-11-----11-----11-----11-----11-----11-----11-----------------| the 2nd 
G|------|----13-13pb15-13pb15-13pb15-13pb15-13pb15-13pb15-13pb15-------------| part 4
D|--2~--|--------------------------------------------------------------------| times
A|--2~--|--------------------------------------------------------------------|
E|--0~--|--------------------------------------------------------------------|
Intro Rhythm
Allow feedback at beginning, and during 1 2 3 4!
e|---------------------------------------------------------------------------|
B|---------------------------------------------------------------------------|
G|---------------------------------------------------------------------------|
D|---------3-4-3-4-3-4-3-4-3-4-3-4-3-4-3-4-3-4-3-4-3-4-3-4-3-4-3-4-3-4-3-4---|
A|---------3-4-3-4-3-4-3-4-3-4-3-4-3-4-3-4-3-4-3-4-3-4-3-4-3-4-3-4-3-4-3-4---|
E|---------1-2-1-2-1-2-1-2-1-2-1-2-1-2-1-2-1-2-1-2-1-2-1-2-1-2-1-2-1-2-1-2---|

Verse 1
Not much guitar in verse, so heres the bass if you want to play it as chords
e|---------------------------------------------------------------------------| This is
B|---------------------------------------------------------------------------| Played
G|---------------------------------------------------------------------------| twice.
D|------------------------------------------------88888888-------------------|
A|--------------------4444444444444444--66666666-----------------------------|
E|--2222222222222222---------------------------------------------------------|
These are the little guitar riffs in the verse:
e|----------------------------------9------11---9------------9-----11---9----|
B|--11-11---7~--------------------7------7---------11------7-----7---------11|
G|--10-10---6~---------------------------------------------------------------|
D|--8--8----4~---------------------------------------------------------------|
A|---------------------------------------------------------------------------|
E|---------------------------------------------------------------------------|

Pre-Chorus lead
e|--------7~--------------6~-------------7~----------------------------------|
B|----7--------------7--------------7--------------7----9~-------------------|
G|--6---6----------6---6----------6---6----------6---6-----------------------|
D|---------------------------------------------------------------------------|
A|---------------------------------------------------------------------------|
E|---------------------------------------------------------------------------|
Rhythm
e|---------------------------------------------------------------------------|
B|---------------------------------------------------------------------------|
G|--4~-------------------------------4~--------------------------6~----------|
D|--4~--------------4~---------------4~---------------4~---------6~----------|
A|--2~--------------4~---------------2~---------------4~---------4~----------|
E|------------------2~--------------------------------2~---------------------|

Chorus
e|---------------------------------------------------------------------------|
B|---------------------------------------------------------------------------|
G|--8~----------------4~----------------8~----------------6~-----------------|
D|--8~----------------4~----------------8~----------------6~-----------------|
A|--6~----------------2~----------------6~----------------4~-----------------|
E|---------------------------------------------------------------------------|

Interlude
e|---------------------------------------------------------------------------|
B|---------------------------------------------------------------------------|
G|--------------------3-3-4-4-4----------------------------------------------|
D|--4~----------------3-3-4-4-4----------------------------------------------|
A|--4~----------------1-1-2-2-2----------------------------------------------|
E|--2~-----------------------------------------------------------------------|

Verse 2
e|---------------------------------------------------------------------------|
B|---------------------------------------------------------------------------|
G|---------------6~----------8~---------8--8---------------------------------|
D|--4~-----------6~----------8~---------8--8-----8~---------8~--8~-----------|
A|--4~-----------4~----------6~---------6--6-----8~---------8~--8~-----------|
E|--2~-------------------------------------------6~---------6~--6~-----------|

e|-------------------------------------------9----11--9--------9----11--9----|
B|-------------------------9----11--9------7----7-------11---7----7-------11-|
G|-------------6~-------11---11----------------------------------------------|
D|--4~---------6~------------------------------------------------------------|
A|--4~---------4~------------------------------------------------------------|
E|--2~-----------------------------------------------------------------------|

Pre-Chorus lead
e|-----------------------------------6~--------------------------------------|
B|------------------------------7-----------------------------------99999999-|
G|--4444-6666-8888-10101010---6---6------4444-6666-8888-10101010-------------|
D|---------------------------------------------------------------------------|
A|--2222-4444-6666-8-8-8-8---------------2222-4444-6666-8-8-8-8--------------|
E|---------------------------------------------------------------------------|
Rhythm
e|---------------------------------------------------------------------------|
B|---------------------------------------------------------------------------|
G|--4444444444444444---------------------4444444444444444------------66666666|
D|--4444444444444444--4~-----------------4444444444444444--44444444--66666666|
A|--2222222222222222--4~-----------------2222222222222222--44444444--44444444|
E|--------------------2~-----------------------------------22222222----------|

Repeat Chorus and Intro

Bridge
e|---------------------------------------------------------------------------|
B|---------------------------------------------------------------------------|
G|----------------------------8~--------66666666-88888888--------------------|
D|----\\\\\\---\\\\-----6-4*--8~--------66666666-88888888--------------------|
A|----------------------------6~--------44444444-66666666--------------------|
E|---------------------------------------------------------------------------|

Prechorus Lead
e|------------------------11--9-------------------------------------------------|
B|---------------------7---------11----------------------------------9~---------|
G|----------------------------------11---4444-6666-8888-10101010----------------|
D|------------------------------------------------------------------------------|
A|---------------------------------------2222-4444-6666-8-8-8-8-----------------|
E|------------------------------------------------------------------------------|
Rhythm
e|---------------------------------------------------------------------------|
B|---------------------------------------------------------------------------|
G|--4444444444443333----------------------4444444444444444----------6~-------|
D|--4444444444443333--4444444444444444----4444444444444444----------6~-------|
A|--2222222222221111--4444444444444444----2222222222222222-44444444-4~-------|
E|--------------------2222222222222222---------------------22222222----------|

Final chorus
e|---------------------------------------------------------------------------|
B|---------------------------------------------------------------------------|
G|--88888888--44444444--88888888--44444444--88888888--66666666---------------|
D|--88888888--44444444--88888888--44444444--88888888--66666666---------------|
A|--66666666--22222222--66666666--22222222--66666666--44444444---------------|
E|---------------------------------------------------------------------------|

Outro Rhythm
e|----------------------- play this 4 times -------------------------|
B|----------------------- then end on:      -------------------------|
G|--------------3344-----                   --4~---------------------|
D|--4444444444443344-----                   --4~---------------------|
A|--4444444444441122-----                   --2~---------------------|
E|--222222222222---------                   -------------------------|

During outro there is another guitar playing the lead from the intro


Thatís it, I think its pretty much 100% accurate. The intro might be a 
little out, but its quite hard to hear whats going on. Apart from that
 both guitars are pretty much fully tabbed out. Thank you. Enjoy!
************************************

| /   slide up
| \   slide down
| h   hammer-on
| p   pull-off
| ~   vibrato
| +   harmonic
| x   Mute note
| b   Bend
| pb  Pre-bend
| br  Bend release
| pbr Pre-bend release
| brb Bend release bend

************************************
 
Tap to rate this tab
 
# A B C D E F G H I J K L M N O P Q R S T U V W X Y Z