Song name
# A B C D E F G H I J K L M N O P Q R S T U V W X Y Z

All-american Rejects - Walk Over Me tab

Hi this is my first tab! I'm pretty positive that everything is right. I hope this tab 
will be useful :)

*I ONLY PUT THE CHORDS, LISTEN TO THE SONG FOR THE STRUMMING PATTERN*

Tuning: Standard

Intro:
e|--------------------------------|
B|----9----10----9----------------|
G|----9----9-----9----9-----------|   Repeat 4x
D|----x----7-----x----9----2------|
A|----7----------7----7----2------|
E|-------------------------0------|


Verse 1:
e|---------------------------------------------|
B|---------------------------------------------|
G|---------------------------------------------|
D|---------------4----------4-------7---9---2--|
A|---2---7---2---2--2---7---2---2---5---7---2--|
E|---0---5---0------0---5-------0-------0---0--|


Chorus:
e|--------------------------------------------|
B|--------------------------------------------|
G|-------------------4---------9-7h-9---------|
D|----2----7----2----4----2-------------------|
A|----2----7----2----2----2-------------------|
E|----0----5----0---------0-------------------|


Verse 2:
e|------------------------------------------------------|
B|------------------------------------------------------|
G|------------------------------------------------------|
D|---------------4---7---9-----------4-------7---9---2--|
A|---2---7---2---2---5---7---2---7---2---2---5---7---2--|
E|---0---5---0---------------0---5-------0-------0---0--|


Chorus:
e|--------------------------------------------|
B|--------------------------------------------|
G|----------------------4---------------------|
D|-----2-----7-----2----4----2----------------|
A|-----2-----7-----2----2----2----------------|
E|-----0-----5-----0---------0----------------|


Bridge:
e|----------------------------------------------|
B|----------------------------------------------|
G|---7-----------7-----------7-------5----------|
D|---7---7---2---7---7---2---7---7---5---5---7--|
A|---5---7---2---5---7---2---5---7---3---5---7--|
E|-------5---0-------5---0-------5-------3---5--|

*Then after the part with only drums and bass*
e|-------0---------------------------|
B|-------0---------------------------|
G|-------0-------7-------9-----------|
D|-------0-------7-------9------2----|
A|-------0-------5-------7------2----|
E|-------0----------------------0----|


Solo:
e|---0-0b---0-0---3-3---3-3---3-5-3--------0---------------------12b---|
B|---------------------------------5-3-0-0---3p0----3-4h5-7-9-10-------|
G|-----------------------------------------------3b--------------------|
D|---------------------------------------------------------------------|
A|---------------------------------------------------------------------|
E|---------------------------------------------------------------------|


Chorus:
e|-----------------------------|
B|-----------------------------|
G|-------------------4---------|   Repeat 2x
D|----2----7----2----4----2----|
A|----2----7----2----2----2----|
E|----0----5----0---------0----|


Outro:
e|-----------------------------|
B|---9---10---9----------------|
G|---9---9----9----------------|   Repeat 4x
D|---x---7----x---9---2--------|
A|---7--------7---9---2--------|
E|----------------7---0--------|


ENJOI!!! :)
Tap to rate this tab
 
# A B C D E F G H I J K L M N O P Q R S T U V W X Y Z