Song name
# A B C D E F G H I J K L M N O P Q R S T U V W X Y Z

All-american Rejects - Walk Over Me tab

Tabbed By: Saviano Perry
smashingpumpkins11@gmail.com

Walk Over Me
 
The All-American Rejects
Kids in the Street

Intro:
Guitar  1:
e|--------------------------------| 
B|-9-109-------------9-10-9-------|
G|-9-9-9-9--99-99----9-9--9-9/----|
D|-x-7-x-9--99-99-x4-x-7--x-9/----|
A|-7---7-7--77-77----7----7-7/----|
E|--------------------------------|

Guitar 2:
e|--------------| 
B|--------------|
G|--------------|
D|-22-22--------|
A|-22-22-x4-----|
E|-00-00--------|

Verse:
Both Guitars with an acoustic guitar:

e|------------------------------------------------------------------------| 
B|------------------------------------------------------------------------|
G|---------------------------------------------------3-5-3--79------------|
D|--------------------------4------------------------3-5-3--79-999999-----|
A|-22-77--22-77---22-77--22-2-4--22-77--22-77--22-22-1-3-1--57-999999-----|
E|-00-55--00-55---00-55--00---2--00-55--00-55--00-00-----------777777-----|

Chorus:
Both Guitars:

e|--------------------------------------------------------------| 
B|--------------------------------------------------------------|
G|-------------------------------------------------------5h7-5--|
D|-2222-2222--7777-7777--2222-2222--2222-7777--2222-7777--------|
A|-2222-2222--7777-7777--2222-2222--2222-7777--2222-7777--------|
E|-0000-0000--5555-5555--0000-0000--0000-5555--0000-5555--------|

Verse:
Guitar 1 and acoustic guitar:

e|------------------------------------------------------------------------| 
B|------------------------------------------------------------------------|
G|---------------------------------------------------3-5-3--79------------|
D|--------------------------4------------------------3-5-3--79-999999-----|
A|-22-77--22-77---22-77--22-2-4--22-77--22-77--22-22-1-3-1--57-999999-----|
E|-00-55--00-55---00-55--00---2--00-55--00-55--00-00-----------777777-----|

Guitar 2 (Guitar 1 can do this)
Strum upward 
e|-x-x-x-x---------------x-x-x-x--------------| 
B|-x-x-x-x-x10-------7-5-x-x-x-x-x5-------9v--|
G|-x-x-x-x------67656----x-x-x-x-----5-7------|
D|--------------------------------------------|
A|--------------------------------------------|
E|--------------------------------------------|


Bridge:
Both Guitars:
e|---------------------------------------------------------------------------------| 
B|---------------------------------------------------------------------------------|
G|---------------------------------------------------------------------------------|
D|-7777777-5555555--7777-7777----7777777-6666666-5555555-4444444-3333333333333333--|
A|-7777777-5555555--7777-7777-x2-7777777-6666666-5555555-4444444-3333333333333333--|
E|-5555555-3333333--5555-5555----5555555-4444444-3333333-2222222-1111111111111111--|

Solo:
Guitar 1:

e|-0------------------------------------------------------------------5h6h7----------| 
B|-0-------------66b-66b-88b-88b-666865--------------------------3h4h5---------------|
G|-0-----------------------------------7p5-75-6h7p5-7p5-5p3-1h2h3--------------------|
D|-0-----7777777---------------------------------------------------------------------|
A|-0-----7777777---------------------------------------------------------------------|
E|-0--57-5555555---------------------------------------------------------------------|

e|-------------------------------| 
B|-6b6b-5-7b7b-6-8b8b-999999-----|
G|-------------------------------|
D|-------------------------------|
A|-------------------------------|
E|-------------------------------|

Guitar 2 Plays verse throughout solo
Tap to rate this tab
# A B C D E F G H I J K L M N O P Q R S T U V W X Y Z