Song name
# A B C D E F G H I J K L M N O P Q R S T U V W X Y Z

All-american Rejects - Fast Slow tab

Fast & Slow
 
The All-American Rejects
Kids in the Street

Intro:

e|-----------------------------------------------------------------| 
B|----119119119-----------------------9911119911119911-9-----------|
G|-11-119119119-1111------------------9911119911119911-9-11--------|
D|-11-----------1111-------------------------------------11-----7--|
A|-9-------------------x1-9----------------------------------x2-7--|
E|--------------------------------------------------------------5--|

Verse:
Guitar 1:
e|--------------------------------------------------| 
B|-------------------------------------10-----------|
G|------------------------------------8-------------|
D|-12121212121212-10101010-x1-----7-9----x2---------|
A|--------------------------------------------------|
E|--------------------------------------------------|
Pm________________________
Guitar 2:
e|-----------------------------------| 
B|-----------------------------------|
G|-12121212121212121212-10101010-----|
D|-------------------------------10--|
A|-------------------------------10~-|
E|-------------------------------8---|
Pm______________________________

Chorus:
Guitar 1:
e|-------------------------------| 
B|-------------------------------|
G|-------------------------------|
D|-999999999999-777777777777-----|
A|-999999999999-777777777777-----|
E|-777777777777-555555555555-----|
Pm__________________________

Guitar 2: strum chords E(x12) and Am(x12)






Bridge:
Guitar 1: (Wah-Wah effect)
e|-22-2---------| 
B|-44-4---------|
G|-44-4---------|
D|--------------|(until the end of the bridge)
A|--------------|
E|--------------|




Guitar 2:
     Em AmAm       AmAm
e|----0-0-0--------0-0-------| 
B|----0-1-1--------1-1-------|
G|----0-2-2--------2-2-------|
D|-2--2-2-2--2-2---2-2-------|
A|-2~-2-0-0--2~2~--0-0-------|
E|-0--0-x-x--0-0---x-x-------|
Tap to rate this tab
# A B C D E F G H I J K L M N O P Q R S T U V W X Y Z