Song name
# A B C D E F G H I J K L M N O P Q R S T U V W X Y Z

All-american Rejects - Affection tab

Tabbed By: Saviano Perry
smashingpumkins11@gmail.com



Affection
 
The All-American Rejects
Kids in the Street

For the verses I strum these chords just once and then repeat: C Em Am 



Solo:

e|------------------------------------------------------17b-15-13-17b17b17b17b17b17b-| 
B|-16v-16-15-14~-16-14-1414141414-13--13-14/16-14~-17-14-----------------------------|
G|-----------------------------------------------------------------------------------|
D|-----------------------------------------------------------------------------------|
A|-----------------------------------------------------------------------------------|
E|-----------------------------------------------------------------------------------|


e|-----------------------------------------| 
B|-18b18b18b18b18b18b-16b16b16b16b16b16b---|
G|-----------------------------------------|
D|-----------------------------------------|
A|-----------------------------------------|
E|-----------------------------------------|

Verse:
e|------------------| 
B|------------------|
G|------------------|
D|--888888-666666---|
A|--888888-666666---|
E|--666666-444444---|

The solo picks back up around 3:40

e|-17b-15b--------------17-15----17b-15b----------| 
B|---------18--17-15----------18---------18-------|
G|-------------------17---------------------------|
D|------------------------------------------------|
A|------------------------------------------------|
E|------------------------------------------------|
Tap to rate this tab
# A B C D E F G H I J K L M N O P Q R S T U V W X Y Z