Song name
# A B C D E F G H I J K L M N O P Q R S T U V W X Y Z

All-american Rejects - Out The Door tab

Tabbed By: Saviano Perry
smashingpumpkins11@gmail.com


Out the Door
 
By The All-American Rejects
Album: Kids In The Street

Verse:

e|----------------------------------------------------------------| 
B|----------------------------------------------------------------|
G|----------------------------------------------------------------|
D|-7777-77777---7777-777------------------------------------------|
A|-5555-55555---5555-555-77-5555-55555---5555-55555---------------|
E|-----------------------55-3333-33333---3333-33333---------------|
Pm_________________________________________________________________

Around 1:30 you start doing this:

e|----------------------------------------------------------------| 
B|----------------------------------------------------------------|
G|---------66------------------------44-----------44--------------|
D|-7777-77777---7777-777------------------------------------------|
A|-5555-55555---5555-555--77-5555-55555---5555-55555--------------|
E|------------------------55-3333-33333---3333-33333--------------|
Pm_________     _____________________     ________

When it gets louder:

e|----------------------------------------------------------------| 
B|----------------------------------------------------------------|
G|-7777-77777---7777-777------------------------------------------|
D|-7777-77777---7777-777--77-5555-55555---5555-55555--------------|
A|-5555-55555---5555-555--77-5555-55555---5555-55555--------------|
E|------------------------55-3333-33333---3333-33333--------------|
Pm__________________________________________________

Outro:

e|----------------------------------------------------------------| 
B|----------------------------------------------------------------|
G|-777------------------------------------------------------------|
D|-777--7777---555------------------------------------------------|
A|-555--7777---555------------------------------------------------|
E|------5555---333------------------------------------------------|
Tap to rate this tab
 
# A B C D E F G H I J K L M N O P Q R S T U V W X Y Z