Song name
# A B C D E F G H I J K L M N O P Q R S T U V W X Y Z

All-american Rejects - I Wanna chords

Highlighted       Show chord diagrams
my First Tab :D 
-Andrew Wilson

                                     ALL-AMERICAN REJECTS - I WANNA

(Verse)
G                                 G/F#
I never thought that I was so blind
                         C
I can finally see the truth
              G
Its me for you


G                                               G/F#
Tonight you cant imagine that Im by your side
                                 C
Cuz its never gonna be the truth
               G - G/F#
Too far for you

(Bridge)        
Em                      C
But can you hear me say?
G                 G/F#
Dont throw me away
Em                  C
And theres no way out
        D
I gotta hold you somehow

(Chorus)
G                              G/F#
I wanna I wanna I wanna touch you
Em
You wanna touch me too
Bm
Everyday but all I have is time
C
Our loves the perfect crime

G                               G/F#
I wanna I wanna I wanna touch you
Em
You wanna touch me too
Bm
Every way and when they set me free
C
Just put your hands on me

(Verse2)
G                                      G/F#
Take everything that I know youll break
                       C
And I give my life away
             G - G/F#
So far for you

(Bridge)
Em                      C
But can you hear me say?
G                 G/F#
Dont throw me away
Em                  C
And theres no way out
        D
I gotta hold you somehow

(Chorus)
G                                G/F#
I wanna I wanna I wanna touch you
Em
You wanna touch me too
Bm
Everyday but all I have is time
C
Our loves the perfect crime


G                                G/F#
I wanna I wanna I wanna touch you
Em
You wanna touch me too
Bm
Every way and when they set me free
C
Just put your hands on me

(Solo) 

e|--------------------------------------------------------10--------------------------------------|
b|---8-10-10---8-10-10---8-10-10---10/8--8/12---------------12----12-13-12-10---10----------------|
g|-----------------------------------------------9-12b-12--------------------12---12-9------------|
d|------------------------------------------------------------------------------------------------|
a|------------------------------------------------------------------------------------------------|
e|------------------------------------------------------------------------------------------------|

e|------------------------------------------------------------------------------------------------|
b|---13-12h13p12-10----12---10--------------------------------------------------------------------|
g|-----------------12----12-----------------------------------------------------------------------|
d|------------------------------------------------------------------------------------------------|
a|------------------------------------------------------------------------------------------------|
e|------------------------------------------------------------------------------------------------|

G              Am
Tonight Im weak
C                                D
Its just another day without you
G               Am
That I cant sleep
C                              D
I gave the world away for you to


Em       C
Hear me say
G                 G/F#
Dont throw me away
Em               C
Theres no way out
        D
I gotta hold you somehow
D
All I wanna do is touch you



G                                G/F#
I wanna I wanna I wanna touch you
Em
You wanna touch me too
Bm
Everyday but all I have is time
C
Our loves the perfect crime


G                                G/F#
I wanna I wanna I wanna touch you
Em
You wanna touch me too
Bm
Every way and when they set me free
C
Just put your hands on me


Thanks :)
Tap to rate this tab
# A B C D E F G H I J K L M N O P Q R S T U V W X Y Z