Song name
# A B C D E F G H I J K L M N O P Q R S T U V W X Y Z

All-american Rejects - Back To Me tab

Back to Me: All American Rejects

Tabbed by:SarkyGuitarist
Email: recon.dudette@hotmail.co.uk
Tuning: Standard (EADGBe)

Where there is a * over a chord, it means you need to find out the strumming 
pattern yourself, I couldn't quite get it. 

Otherwise, I think it is pretty accurate. I tabbed it clean, so it might be different distorted. 

Hope it is ok and email me with any corrections!:)

.= palm mute
~= vebrato

Intro:
   * *                    *   
e--------------------------
B---2----------------------
G-6-2--77777777-99999999-6- 
D-7-0--77777777-99999999-7-
A-7----55555555-77777777-7-
E-5----------------------5-

Verse:   * x2
e---------
B-------2-
G-6~-4~-2-
D-6~-4~-2-
A-4~-2~---
E---------

Pre-Chorus:
   ..      ..      ..      ..              *
e-------------------------------------------
B------------------------------------5------
G-66-6-66-44-4-44-77-7-77-77-7-77---6-6---7-
D-66-6-66-44-4-44-77-7-77-77-7-77--6---6--7-
A-44-4-44-22-2-22-55-5-55-55-5-55-4-----4-5-
E-------------------------------------------

Chorus:
   *  *          * *
e-------------------
B----2-----5--------
G-6--2----6-6---7-6-
D-7--0---6---6--7-7-
A-7-----4-----4-5-7-
E-5---------------5-

Verse:
Pre-chorus:
Chorus x2:
   *  *          * 
e-----------------
B----2-----5------
G-6--2----6-6---7-
D-7--0---6---6--7-
A-7-----4-----4-5-
E-5---------------

Bridge:
   .... .... .... .... x3.... ....                      
e--------------------------------
B--------------------------------
G-6666-4444-7777-7777--9999-9999-
D-6666-4444-7777-7777--9999-9999- 
A-4444-2222-5555-5555--7777-7777-
E--------------------------------

I got the solo from the other tab by osXtiger.
The one called 'Back To Me Solo'

Last chord on it is e--- instead though.
                    B---
                    G-6-
                    D-7-
                    A-7-
                    E-5-
Outro:
   *  *          *  x2
e---------------------------------
B----2-----5-----------5----------
G-6--2----6-6---7-----6-6---7~--6-
D-7--0---6---6--7----6---6--7~--7-
A-7-----4-----4-5---4-----4-5~--7-
E-5-----------------------------5-
Tap to rate this tab
# A B C D E F G H I J K L M N O P Q R S T U V W X Y Z