Song name
# A B C D E F G H I J K L M N O P Q R S T U V W X Y Z

All-american Rejects - The Cigarette Song tab

The cigarette song – All American Rejects
Standard Tuning
....... = palm muting.

The other 5* was pretty close and it fit with the song, but it’s not how they play it o 
track. I spent a while trying to get this 100% so here you are.


e------|----------------------------------------------------|-----------|
b------|----------------------------------------------------|-----------|
g------|-----------------------------2-22-222----2-22-222---|-----6—-2--|
d-2222-|---2-22-222------------------2-22-222----2-22-222---|--4-—6—-2--|
a-2222-|---2-22-222-----2-22-222-----0-00-000---—0-00-000---|--4--4—-0--|
E-0000-|---0-00-000-----2-22-222----------------------------|--2—-0-—0--|
  ....	   	   play this section x4


e---------------------------------------------------		|
b---------------------------------------------------		|
g--------------------------44444444--4444-----------		|
d—-22222222----22222222----44444444--4444--9724-----		|
a--22222222----22222222----22222222--2222--9724-----		|
E--00000000----00000000--------------------7542-----		|
   ........    ........    ........  ....  ....			| Guitar 1
									|    x2
e----------------------------------------------0----|		|
b----------------------------------------------0----|		|
g--66666666-----66666666-----22222222----------0----|		|
d--66666666-----66666666-----22222222----------2----|		|
a--44444444-----44444444-----00000000----------2----|		|
E----------------------------------------------0----|		|
   ........     ........     ........


Guitar 2
e-----------|---------0-------|---------------------|
b--5--------|-----0-----0---0-|------0---------0----|
g----4-5----|-----------------|---------------------|
d--------6--|---6---6-----6---|----6----6----6—--6--|
a-----------|-7---------------|--7---------7--------|
E-----------|-----------------|---------------------|
    x1              x4                  x3

e---—0000000--------|
b----0000000--------|
g----5555555--------|
d----6666666--------|
a--7-7777777--------|
E-------------------|
Instead of playing the third
part the 4th time round, end
on Down strumming this.


e-----------------------------------------------------------------|
b-----------------------------------------------------------------|
g---6-6666-6666---6-6666-6666-------------------------------------|
d---6-6666-6666---6-6666-6666-------7-7777-7777---7-7777777-------|
a---4-4444-4444---4-4444-4444-------7-7777-7777---7-7777777-------|
E-----------------------------------5-5555-5555---5-5555555-------|
“Not a day has passed...”                           .......


e---0-----------0-------------|---2-2-22-22-22---2-2-22-22-22--|
b---0-----------0-------0-----|---2-2-22-22-22---2-2-22-22-22—-|
g---1---1--1----1----1—-1-----|---4-4-44-44-44---4-4-44-44-44--|
d---2--2--2-----2--2----2-----|---4-4-44-44-44---4-4-44-44-44--|
a---2-----------2-------------|---2-2-22-22-22---2-2-22-22-22--|
E-0-0---------0-0—------------|--------------------------------|
                               	I couldn’t quite get the
				 	  strumming right here..

e---------------------------------------------|
b-------------------------9--7-9--4--5-0------|
g--66666666--77777777-------------------------|  x4
d--66666666--77777777-------------------------|
a--44444444--55555555-------------------------|
E-----------------------00-00-0-00-00-0-------|
“I can’t remind you..”


e---0-----------0-------------|---2-2-22-22-22---2-2-22-22-22--|
b---0-----------0-------0-----|---2-2-22-22-22---2-2-22-22-22—-|
g---1---1--1----1----1—-1-----|---4-4-44-44-44---4-4-44-44-44--|
d---2--2--2-----2--2----2-----|---4-4-44-44-44---4-4-44-44-44--|
a---2-----------2-------------|---2-2-22-22-22---2-2-22-22-22--|
E-0-0---------0-0—------------|--------------------------------|
                               	I couldn’t quite get the
				 	  strumming right here..

Ending
e--------------------------------------------------------------------------|-0-|
b--------------------------------------------------------------------------|-0-|
g-----------------------------------------------1----------------2-1-------|-1-|
d------2---2-1-2----------2----2-1-2--------2-----2---2------2-------4-2---|-2-|
a----2---2--------2---0-2----2-------2----2---0-----2------2---2-----------|-2-|
E--0-----------------------------------0----------------0------------------|-0-|
				This part  x4

There you go =] comments and rating would be appreciated
Tap to rate this tab
 
# A B C D E F G H I J K L M N O P Q R S T U V W X Y Z