Song name
# A B C D E F G H I J K L M N O P Q R S T U V W X Y Z

All-american Rejects - The Poison tab

--------------------------------------------------------------------------------------------
                             The Poison - The All-American Rejects
--------------------------------------------------------------------------------------------
Tabbed by: Karen Alfonso
E-mail: karen.saysHIhotmail.com

The other tabs made were just plain wrong or too complicated (my fingers aren't long enough 
either) and so I listened to the song and came up with this.
   --First tab!

Tuning: Standard, Capo 1
 
  Intro                                     (you can use open B&G string instead of 4&5 on G)
e|--------------|------0------|-------------0--|-------------|-------------|----------------|
B|-------1------|--0-0----0---|-------1--------|------1------|-------3-----|------1------3--|
G|------0---0---|---0------0--|------2--2------|-----0---0---|--4--4---4---|-----0--0-------|
D|--------------|-------------|----------------|-------------|---5------5--|----------------|
A|--3--------3--|-------------|--0--------0----|-------------|-------------|----------------|
E|--------------|-------------|----------------|--3-------3--|-------------|--1-------------|
  
  Verse 1 and 2
e||-----------------|------0------|--------------|------0------|--------------|--1----------|
B||o--------1-------|--0-0----0---|------1-------|--0-0----0---|------1-------|------1------|
G||--------0--0-----|---0------0--|-----0--0-----|---0------0--|-----0--0-----|-----0-0-----|
D||-----------------|-------------|--------------|-------------|--------------|-------------|
A||o----3--------3--|-------------|--3--------3--|-------------|--------------|-------------|
E||-----------------|-------------|--------------|-------------|--1--------1--|----------1--|
1.You are so young...
2.I can be pensive...
e|-------------|--1---------||
B|------1------|-----1-----o||
G|-----0--0----|----0-0-----||  <- repeat sign, play twice
D|-------------|------------||
A|-------------|-----------o||
E|--1-------1--|---------1--||

  Chorus  
e||---------------------------------|------------|--1---------||
B||o--------------1----1----1----1--|-----1------|-----1-----o||
G||--------------2----2----2----2---|----0-0-----|----0-0-----||  play THREE times
D||---------------------------------|------------|------------||
A||o-----------0----2----3----------|------------|-----------o||
E||---------------------------3-----|-1-------1--|---------1--||
And you'll fall dooooooooooooowwwnnnn a hole.
Thats the one  plaaaaaaaaaace we both know.            
You'd take me with you if you could, but I wouldn't go. I guess that

e|----------------------|--------------------------|
B|-----1------3---1-----|----------------1------3--|
G|----0--0------0---0---|---------------0--0-------|
D|----------------------|--------------------------|
A|----------------------|--------------------------|
E|--0------0---------0--|-------------1------1-----|
sometimes...         we both lose our minds      to find a better

(PLAY INTRO (when he sings "road") PLAY VERSE 2 LIKE VERSE 1, PLAY HUMMING PART (below),
THEN CHORUS, THEN PLAY BRIDGE)
 
 Part where he hums (completely guessed, but it sounds "right". sorry! :p )
e|----------------------------1------------------------------------------------0-------|
B|-----1--------1---------1------1------1------1---------0----3--0--------1-------1----|
G|----2--2-----2-2-------0-0----0-0----0-0----0-0-------0-0-----0-0------2-2-----2-2---|
D|-------------------------------------------------------------------------------------|
A|--0------0-0-----0------------------3---3--3---3---2-----2-------2---0-----0------0--|
E|---------------------1-----1------1--------------------------------------------------|
       start humming around here
e|---------------------------------------------------------------|
B|-----3---------3----------1------1p0-0--------1------1p0-0-----|
G|-------------------------0--0---------0------0--0---------0----|    (now play the chorus) 
D|----3--3------3--3---------------------------------------------|
A|--1------1--1------1-------------------------------------------|
E|-----------------------3------3---------3--3------3---------3--|

I'm sorry, i'll do the bridge asap maybe -___-"

************************************

| /   slide up
| \   slide down
| h   hammer-on
| p   pull-off
| ~   vibrato
| +   harmonic
| x   Mute note
| b   Bend
| pb  Pre-bend
| br  Bend release
| pbr Pre-bend release
| brb Bend release bend

************************************
Tap to rate this tab
 
# A B C D E F G H I J K L M N O P Q R S T U V W X Y Z