Song name
# A B C D E F G H I J K L M N O P Q R S T U V W X Y Z

All-american Rejects - Her Name Rhymes With Mindy tab

                       THE ALL-AMERICAN REJECTS
                      HER NAME RHYMES WITH MINDY


STANDARD TUNING


guitar 1 plays the power chords and guitar 2 plays the high notes
------14-------14-------14-------14-15----|
---------15-------15-------15-------------|
---77-------------------------------------|
---77-------99-------55-------77----------|x2
---55-------99-------55-------77----------|
------------77-------33-------55----------|

guitar 2 keeps on playin the high notes
---------------------------------------------------------------|
---------------------------------------------------------------|
--77777777------------------------77777777---------------------|
--7777777799999999555555557777777777777777999999995555555577---|
--5555555599999999555555557777777755555555999999995555555577---|
----------777777773333333355555555--------777777773333333355---|

--------------------------------------------------------------|
--------------------------------------------------------------|
--7---------------------------7-------------------------------|
--7------9------5------7------7------9------5------7----------|
--555555-9------5------7------555555-9------5------7----------|
---------777777-333333-555555--------777777-333333-555555-----|

--------------------------|
--------------------------|
--------------------------|
--55555555/77777777-------|
--55555555/77777777-------|
--33333333/55555555-------|

guitar 2 plays high notes
--------------------------------------------|
--------------------------------------------|
--7777----------------7777------------------|
--7777-9999-5555-7777-7777-9999-5555-7777---|
--5555-9999-5555-7777-5555-9999-5555-7777---|
-------7777-3333-5555------7777-3333-5555---|

--------------------------------------------------------------|
--------------------------------------------------------------|
--7---------------------------7-------------------------------|
--7------9------5------7------7------9------5------7----------|
--555555-9------5------7------555555-9------5------7----------|
---------777777-333333-555555--------777777-333333-555555-----|

--------------------------|
--------------------------|
--------------------------|
--55555555/77777777-------|
--55555555/77777777-------|
--33333333/55555555-------|

---------------------------------------------------------------|
---------------------------------------------------------------|
--77777777------------------------77777777---------------------|
--7777777799999999555555557777777777777777999999995555555577---|
--5555555599999999555555557777777755555555999999995555555577---|
----------777777773333333355555555--------777777773333333355---|

-------------------------------------------------------------|
-------------------------------------------------------------|
--77-777----------------------77-777-------------------------|
--77-777-99-999-55-555-77-777-77-777-99-999-55-555-77-777----|
--55-555-99-999-55-555-77-777-55-555-99-999-55-555-77-777----|
---------77-777-33-333-55-555--------77-777-33-333-55-555----|

--------------------------------------------------------------|
--------------------------------------------------------------|
--7---------------------------7-------------------------------|
--7------9------5------7------7------9------5------7----------|
--555555-9------5------7------555555-9------5------7----------|
---------777777-333333-555555--------777777-333333-555555-----|

--------------------------|
--------------------------|
--------------------------|
--55555555/77777777-------|
--55555555/77777777-------|
--33333333/55555555-------|


--------------------------------------------|
--------------------------------------------|
--7777----------------7777------------------|
--7777-9999-5555-7777-7777-9999-5555-7777---|
--5555-9999-5555-7777-5555-9999-5555-7777---|
-------7777-3333-5555------7777-3333-5555---|

-------------------------------------------------------------|
-------------------------------------------------------------|
--77-777----------------------77-777-------------------------|
--77-777-99-999-55-555-77-777-77-777-99-999-55-555-77-777----|
--55-555-99-999-55-555-77-777-55-555-99-999-55-555-77-777----|
---------77-777-33-333-55-555--------77-777-33-333-55-555----|

--------------------------------------------|
--------------------------------------------|
--7777----------------7777------------------|
--7777-9999-5555-7777-7777-9999-5555-7777---|
--5555-9999-5555-7777-5555-9999-5555-7777---|
-------7777-3333-5555------7777-3333-5555---|

-------------------------------------------------------------|
-------------------------------------------------------------|
--77-777----------------------77-777-------------------------|
--77-777-99-999-55-555-77-777-77-777-99-999-55-555-77-777----|
--55-555-99-999-55-555-77-777-55-555-99-999-55-555-77-777----|
---------77-777-33-333-55-555--------77-777-33-333-55-555----|

thats it
peace
Tap to rate this tab
# A B C D E F G H I J K L M N O P Q R S T U V W X Y Z