Guitaretab - guitar tabs
Song name
# A B C D E F G H I J K L M N O P Q R S T U V W X Y Z

All-american Rejects - It Ends Tonight tab

Band: All-american Rejects
Song: It Ends Tonight
Nag tB: hehehe taga ucc University of caloocan city
       hi sa mga klsm8 kng busg hehehe sila Joriel"busog"
       duds"busog" ronald"boy angas" benjie-PUSO-jennylyn
       benneth migz Emiliano crisostomo jr.jigz jason hehehe
       saka sa mga babae nmg klsm8 saka ung lahat  ng taga
       UCC saka kay "hipon"
       to oL mkmgt Ia ung best fwEnd nten bati in nio gago un !!!!!!     nakakuha xia ng 
sa garde nia puriin nio nmn kawa2 nmn xia !!!!! hahahaha gLt kme sa mga baDing na k2Ld 
ung besT fwnd nio best fwnd nating lHt !!!!!!!!
Tuning: DADGCD


Intro:

D|-101010--------101010-----------------101010-------|
C|---------------------------------4-----------------|
G|---------9--------------9----5555-------------9----|
D|---------------------------------------------------|
A|---------------------------------------------------|
D|-7----------5s7-----------5s3------5s7-------------|

Verse:

D|-------------------------------------|
C|-------------------------------------|
G|-------------------------------------|
D|-------------------------------------|
A|-------------------------------------|
D|-7~--3~---0~---2~----7~-5-3~-0~--2~--|

Refrain:

D|-------0-----|-------0----|--------0--0------0--0-----|
C|-----0--0-0--|-----0--0-0-|-------0--0------0--0------|
G|----0-0--2---|----0-0--2--|------9--9-----10--9-------|
D|-3~----------|-3~---------|--10~----------------------|
A|-3~----------|-3~---------|--10~----------------------|
D|-3~----------|-3~---------|--10~--------10~-----------|

D|--------0----|-------2----|------0----3--2--0--|
C|------0--0-0-|-----0--0-0-|----0--0--0-0--00~-|
G|-----0-0--2--|----0-0--0--|---2-2--2----2--2---|
D|--3~---------|-2~---------|-0~-----------------|
A|--3~---------|-3~---------|--------------------|
D|--3~---------|------------|--------------------|

Chorus:

D|--0~--x---x---x-----|
C|--0~--x---x---x-----|
G|--0~--x---x---x-----|
D|--2~--3~--9~--5~----|
A|--3~--3~--9~--5~----|
D|--x---3~--9~--5~----|

Verse 2:

D|-----------------------------------------------------------------------|
C|-----------------------------------------------------------------------|
G|---------0---------------0---0-------x-x-x---x-------x-x-x---0---------|
D|-----7-7-7---7-------3-3-3---3-------7-7-7---7-------7-7-7---0---7-----|
A|-----7-7-7---7-------3-3-3---3---5-5-5-5-5---5-------7-7-7-------7-----|
D|-7-7-7-7-7-7-7---3-3-3-3-3-3-3-----------------------------------------|

D|--------------------------------------------------------------------|
C|-----0-0-0---0------------------------------------------------------|
G|-----0-0-0---0-----------0---0-------x-x-x---x-------7-5-5---5------|
D|-----x-x-x---x-------3-3-3---3-------7-7-7---7-------5-5-5---5------|
A|-0-0-0-0-0-0-0-------3-3-3---3---5-5-5-5-5---5-------7-7-7-7-7------|
D|-----------------3-3-3-3-3-3-3--------------------------------------|
Pre-Chorus:
[ Tab from: http://www.guitaretab.com/a/all-american-rejects/62113.html ]
D|-----------------------------------------------------------------|
C|-----------------------------------------------------------------|
G|-----------------------------------------------------------------|
D|-3-3-3-3-3-3-3-3-3-3-3-3-3-3-3-3------5-5-5---5-----5-5-5---5----|
A|-3-3-3-3-3-3-3-3-3-3-3-3-3-3-3-3--3-3-3-3-3-3-3-3-3-3-3-3-3-3----|
D|-3-3-3-3-3-3-3-3-3-3-3-3-3-3-3-3---------------------------------|


D|---------------------------------------------------------------|
C|---------------------------------------------------------------|
G|---------------------------------------------------------------|
D|-----3-3-3---3---3------2-2-2---2------7-7-7---7--7-7-7-7-7----|
A|-----3-3-3---3---3------3-3-3---3--5-5-5-5-5-5-5--5-5-5-5-5----|
D|-3-3-3-3-3-3-3-3-3-x-x-x-x-x---x------------------------------|

Chorus:

D|------------------------------------------------------------|
C|------------------------------------------------------------|
G|------------------------------------------------------------|
D|--5-5-5-5-5-5-----------------------------------------------|
A|--3-3-3-3-3-3----3-3-3-3-3-3----7-7-7-7-7-7----5-5-5-5-5-5--|
D|-----------------3-3-3-3-3-3----7-7-7-7-7-7----5-5-5-5-5-5--|

Bridge:

D|-------------------------------------------------------------|
C|-------------------------------------------------------------|
G|-------------------------------------------------------------|
D|--7-7-7-7-7-7-7--5-5-5-5-5-5-5--5-5-5-5-5-5-5--3-3-3-3-3-3-3-|
A|--7-7-7-7-7-7-7--5-5-5-5-5-5-5--5-5-5-5-5-5-5--3-3-3-3-3-3-3-|
D|--7-7-7-7-7-7-7--5-5-5-5-5-5-5--4-4-4-4-4-4-4--3-3-3-3-3-3-3-|


D|------------------------------------------------------------------|
C|------------------------------------------------------------------|
G|------------------------------------------------------------------|
D|-7-7--7-7--7-7--7-7--7--------------------------------------------|
A|-7-7--7-7--7-7--7-7--7---5-5--5-5--5-5--5-55----5-5-5-5-5-5-5----|
D|-7-7--7-7--7-7--7-7--7---5-5--5-5--5-5--5-55----4-4-4-4-4-4-4----|


D|---0~-0~-0~-0~---0-0-0-0-0-0-----------------------------------------------|
C|---0~-0~-0~-0~---0-0-0-0-0-0-----------------------------------------------|
G|---0~-0~-0~-0~---0-0-0-0-0-0-----------------------------------------------|
D|---2~-3~-7~-5~---2-2-2-2-2-2---3-3-3-3-3-3---7-7-7-7-7-7---5-5-5-5-5-5-----|
A|---3~-3~-7~-5~---3-3-3-3-3-3---3-3-3-3-3-3---7-7-7-7-7-7---5-5-5-5-5-5-----|
D|------3~-7~-5~-----------------3-3-3-3-3-3---7-7-7-7-7-7---5-5-5-5-5-5-----|

D|------------------------------------------------------------|
C|------------------------------------------------------------|
G|------------------------------------------------------------|
D|--5-5-5-5-5-5-----------------------------------------------|
A|--3-3-3-3-3-3----3-3-3-3-3-3----7-7-7-7-7-7----5-5-5-5-5-5--|
D|-----------------3-3-3-3-3-3----7-7-7-7-7-7----5-5-5-5-5-5--|

Repeat chorus until ending:

hehehe pag pasensyahan nyo na tab ko first timer lang e hehehe
paki rate na lang basta ung tama a!

MigZ ArtworkZ
jolet paulo dela cruz
Related for It Ends Tonight tab