Guitaretab - guitar tabs
Song name
# A B C D E F G H I J K L M N O P Q R S T U V W X Y Z

All-american Rejects - Straight Jacket Feeling tab

Artist : All-American Rejects
Song   : Straight Jacket Feeling
Album  : Move Along
Tuning : Open E (low to high) E B E G# B e

Intro - Gtr.1
e |-----------0--------------------------0-------------------------------0-----| 
B |-0h2------------2-----------0h4---------------4-----------0-----------------|
G#|-0h1----------------1-------0h3-------------------3-----------5-------------|
E |-------0---------------0----------0-------0-----------0-----------5---------|
B |----------------------------------------------------------------------------|
E |-2--------------------------4-----------------------------5-----------------|

Verse - Gtr.1
e |-------0---------------0-------------------------------0-----------|x2 
B |-0h2-----2-----------0---0---------0---0-------------4---4---------|
G#|-0h1-------1-------5-------5-------1p0-1p0---0-----3-------3-------|
E |-----0-------0---5-----------5---0---------2-----2-----------0-----|
B |-----------------------------------------------0-------------------|
E |-2-------------5---------------0-----------------------------------|


e |----------0-----------0-----------0---------------------0-------------| 
B |----------0-----------0--------------4-----0---------------4----------|
G#|-------5-----------5-----------3--------3------------3--------3-------|
E |----4-----------5-----------2---------------------2--------------0----|
B |-2-----------------------0---------------------0----------------------|
E |-------------5--------------------------------------------------------|


e |----------0-----------0------------------------------------0----------| 
B |----------0-----------0--------0----0-------------------4-----4-------|
G#|-------5-----------5-----------1p0--1p0-----0--------3-----------3----|
E |----0-----------0-----------2------------2--------2-----------------2-|
B |-------------------------0---------------------0----------------------|
E |-4-----------5--------------------------------------------------------|

Chorus - Gtr.1 and Gtr.2
e |-0-0-0-0-0-0-0-0-0-0-0-0-0-0-0-0----0-0-0-0-0-0-0-0-0-0-0-0-0-0-0-0---| 
B |-0-0-0-0-0-0-0-0-0-0-0-0-0-0-0-0----0-0-0-0-0-0-0-0-0-0-0-0-0-0-0-0---|
G#|-0-0-0-0-0-0-0-0-0-0-0-0-0-0-0-0----0-0-0-0-0-0-0-0-0-0-0-0-0-0-0-0---|
E |-0-0-0-0-0-0-0-0-0-0-0-0-0-0-0-0----0-0-0-0-0-0-0-0-0-0-0-0-0-0-0-0---|
B |-0-0-0-0-0-0-0-0-0-0-0-0-0-0-0-0----9-9-9-9-9-9-9-9-9-9-9-9-9-9-9-9---|
E |-0-0-0-0-0-0-0-0-0-0-0-0-0-0-0-0----9-9-9-9-9-9-9-9-9-9-9-9-9-9-9-9---|


e |-0-0-0-0-0-0-0-0-0-0-0-0-0-0-0-0----0-0-0-0-0-0-0-0-0-0-0-0-0-0-0-0---| 
B |-0-0-0-0-0-0-0-0-0-0-0-0-0-0-0-0----0-0-0-0-0-0-0-0-0-0-0-0-0-0-0-0---|
G#|-0-0-0-0-0-0-0-0-0-0-0-0-0-0-0-0----0-0-0-0-0-0-0-0-0-0-0-0-0-0-0-0---|
E |-0-0-0-0-0-0-0-0-0-0-0-0-0-0-0-0----0-0-0-0-0-0-0-0-0-0-0-0-0-0-0-0---|
B |-5-5-5-5-5-5-5-5-5-5-5-5-5-5-5-5----7-7-7-7-7-7-7-7-7-7-7-7-7-7-7-7---|
E |-5-5-5-5-5-5-5-5-5-5-5-5-5-5-5-5----7-7-7-7-7-7-7-7-7-7-7-7-7-7-7-7---|

Verse - Gtr.1
e |----------------------0--7----------------------------0---------| 
B |----------0-----0-----0-----9-----------5--5--------4---4-------|
G#|-------5-----5--------0--------9-----------4-----4---------4----|
E |----5--------------5--0-----------9--7-----6--4-----------------|
B |----------------------2-----------------------------------------|
E |-5--------------------2-----------------------------------------|


e |-4-----4-----5-----5-----7-----7-----7-----7-----7-----7--------| 
B |----5-----5-----5-----5-----7-----7-----7-----7-----7-----7-----|
G#|----------------------------------------------------------------|
E |----------------------------------------------------------------|
B |----------------------------------------------------------------|
E |----------------------------------------------------------------|

Chorus - Gtr.1
e |-0-~------------------------0-~---------------------------------| 
B |-0-~------------------------0-~---------------------------------|
G#|-0-~------------------------0-~---------------------------------|
E |-0-~------------------------0-~---------------------------------|
B |-7-~------------------------9-~---------------------------------|
E |-7-~------------------------9-~---------------------------------|

[ Tab from: http://www.guitaretab.com/a/all-american-rejects/64589.html ]
e |-0-~------------------------0-------0-0-0-0-0-0-0---------------| 
B |-0-~------------------------0-------0-0-0-0-0-0-0---------------|
G#|-0-~------------------------0-------0-0-0-0-0-0-0---------------|
E |-0-~------------------------0-------0-0-0-0-0-0-0---------------|
B |-5-~------------------------7-------7-7-7-7-7-7-7---------------|
E |-5-~------------------------7-------7-7-7-7-7-7-7---------------|

  Gtr.2
e |-----------------------------------12----------12-------------| 
B |--------------------------------------16----16----16----16----|
G#|-----------------------------------------16----------16-------|
E |--------------------------------------------------------------|
B |--------------------------------------------------------------|
E |--------------------------------------------------------------|


e |-12------12---------12------------------12--14-14-14-14-14-14-14-14-16-| 
B |-----16------16---------16----------16---------------------------------|
G#|-----------------16---------14--14-------------------------------------|
E |-----------------------------------------------------------------------|
B |-----------------------------------------------------------------------|
E |-----------------------------------------------------------------------|


Bridge - Gtr.1 and Gtr. 2
e |-0-0-0-0-0-0-0-0--0-0-0-0-0-0-0-0--0-0-0-0-0-0-0-0--0-0-0-0-0-0-0-0----| 
B |-0-0-0-0-0-0-0-0--0-0-0-0-0-0-0-0--0-0-0-0-0-0-0-0--0-0-0-0-0-0-0-0----|
G#|-0-0-0-0-0-0-0-0--0-0-0-0-0-0-0-0--0-0-0-0-0-0-0-0--0-0-0-0-0-0-0-0----|
E |-0-0-0-0-0-0-0-0--0-0-0-0-0-0-0-0--0-0-0-0-0-0-0-0--0-0-0-0-0-0-0-0----|
B |-5-5-5-5-5-5-5-5--2-2-2-2-2-2-2-2--4-4-4-4-4-4-4-4--0-0-0-0-0-0-0-0----|
E |-5-5-5-5-5-5-5-5--2-2-2-2-2-2-2-2--4-4-4-4-4-4-4-4--0-0-0-0-0-0-0-0----|


e |-0-0-0-0-0-0-0-0--0-0-0-0-0-0-0-0--0-0-0-0-0-0-0-0--0-0-0-0-0-0-0-0----| 
B |-0-0-0-0-0-0-0-0--0-0-0-0-0-0-0-0--0-0-0-0-0-0-0-0--0-0-0-0-0-0-0-0----|
G#|-0-0-0-0-0-0-0-0--0-0-0-0-0-0-0-0--0-0-0-0-0-0-0-0--0-0-0-0-0-0-0-0----|
E |-0-0-0-0-0-0-0-0--0-0-0-0-0-0-0-0--0-0-0-0-0-0-0-0--0-0-0-0-0-0-0-0----|
B |-5-5-5-5-5-5-5-5--2-2-2-2-2-2-2-2--4-4-4-4-4-4-4-4--0-0-0-0-0-0-0-0----|
E |-5-5-5-5-5-5-5-5--2-2-2-2-2-2-2-2--4-4-4-4-4-4-4-4--0-0-0-0-0-0-0-0----|


e |-0---0---0-0-0---| 
B |-0---0---0-0-0---|
G#|-0---0---0-0-0---|
E |-0---0---0-0-0---|
B |-5---5---5-5-5---|
E |-5---5---5-5-5---| 

  Gtr.2 
e |---------------------| 
B |---------------------|
G#|----------0---0------|
E |--------5---5--------|
B |------5---------5----|
E |----5----------------|

Outro Chorus - Gtr.1
e |-0-0-0-0-0-0-0-0-0-0-0-0-0-0-0-0----0-0-0-0-0-0-0-0-0-0-0-0-0-0-0-0---| 
B |-0-0-0-0-0-0-0-0-0-0-0-0-0-0-0-0----0-0-0-0-0-0-0-0-0-0-0-0-0-0-0-0---|
G#|-0-0-0-0-0-0-0-0-0-0-0-0-0-0-0-0----0-0-0-0-0-0-0-0-0-0-0-0-0-0-0-0---|
E |-0-0-0-0-0-0-0-0-0-0-0-0-0-0-0-0----0-0-0-0-0-0-0-0-0-0-0-0-0-0-0-0---|
B |-2-2-2-2-2-2-2-2-2-2-2-2-2-2-2-2----9-9-9-9-9-9-9-9-9-9-9-9-9-9-9-9---|
E |-2-2-2-2-2-2-2-2-2-2-2-2-2-2-2-2----9-9-9-9-9-9-9-9-9-9-9-9-9-9-9-9---|


e |-0-0-0-0-0-0-0-0-0-0-0-0-0-0-0-0----0-0-0-0-0-0-0-0-0-0-0-0-0-0-0-0---| 
B |-0-0-0-0-0-0-0-0-0-0-0-0-0-0-0-0----0-0-0-0-0-0-0-0-0-0-0-0-0-0-0-0---|
G#|-0-0-0-0-0-0-0-0-0-0-0-0-0-0-0-0----0-0-0-0-0-0-0-0-0-0-0-0-0-0-0-0---|
E |-0-0-0-0-0-0-0-0-0-0-0-0-0-0-0-0----0-0-0-0-0-0-0-0-0-0-0-0-0-0-0-0---|
B |-5-5-5-5-5-5-5-5-5-5-5-5-5-5-5-5----7-7-7-7-7-7-7-7-7-7-7-7-7-7-7-7---|
E |-5-5-5-5-5-5-5-5-5-5-5-5-5-5-5-5----7-7-7-7-7-7-7-7-7-7-7-7-7-7-7-7---|


  Gtr.2
e |----12-12-------12-12-------12-12-------12-12--------|x6 
B |-16-------16----------16----------16----------16-----|
G#|-------------16----------16----------16----------16--|
E |-----------------------------------------------------|
B |-----------------------------------------------------|
E |-----------------------------------------------------|

  Gtr.1
e |-----------------------------------0---0---0---0---0---0---| 
B |-----------------------------------0---0---0---0---0---0---|
G#|-2--2---------------------0---0----0---0---0---0---0---0---|
E |-2--2------------4------5---5------0---0---0---0---0---0---|
B |-0--0------------4----5---------5--2---5---5---5---5---2---|
E |--------4--5--4--2--5--------------2---5---5---5---5---2---|
Related for Straight Jacket Feeling tab
Advertisement will be closed in 10 seconds