Song name
# A B C D E F G H I J K L M N O P Q R S T U V W X Y Z

All-american Rejects - Im Waiting tab

------------------------------------------------------------------------
		I'm Waiting -  ALL AMerican REjects
-------------------------------------------------------------------------
Tabbed by:nofxmike		
Email:yeahrightspammers@gofyourselves.spammers.com

Drop D Tuning:DADgbe


   HOok 1 (INTRO):

Phrase 1: 

   Guitar I
e|------------------------------------------|
B|------------------------------------------|
G|--4-4------------7-7----------7\----------|
D|--2-2------------5-5----------5\----------|
A|--2-2------------5-5----------5\----------|
D|--2-2------------5-5----------5\----------|
    ^ ^		   ^ ^	        ^
      .		     .

   Guitar II

e|------------------------------------------|
B|------------------------------------------|
G|------7--7----7------7--7----7\-----------|
D|------------------------------------------|
A|------5--5----5------5--5----5\-----------|
D|------------------------------------------|
           .    .         .    .



Phrase 2:

   Guitar I
     
e|------------------------------------------|
B|------------------------------------------|
G|---7-7-7-7-7-7-7-7-6-6-6-6-6-6-6-6--------|
D|---0-0-0-0-0-0-0-0-4-4-4-4-4-4-4-4--------|
A|---0-0-0-0-0-0-0-0-4-4-4-4-4-4-4-4--------|
D|---0-0-0-0-0-0-0-0-4-4-4-4-4-4-4-4--------|


   Guitar II
e|------------------------------------------|
B|------------------------------------------|
G|-----7-7--7----7-----6-6--6----6\---------|
D|-----5-5-------------4-4------------------|
A|-----5-5--5----5-----4-4--4----4\---------|
D|------------------------------------------|
            .    .          .    .

   Guitar I
e|------------------------------------------|
B|------------------------------------------|
G|--4-4--4---4----4--7-7--7--7----7\--------|
D|--2-2--2---2----2--5-5--5--5----5\--------|
A|--2-2--2---2----2--5-5--5--5----5\--------|
D|--2-2--2---2----2--5-5--5--5----5\--------|
    ^ ^	     .    .  ^ ^  	       
      .		       .

   Guitar II

e|------------------------------------------|
B|------------------------------------------|
G|-------7---7----7-------7--7----7\--------|
D|------------------------------------------|
A|-------5---5----5-------5--5----5\--------|
D|------------------------------------------|
             .    .          .    .


   Guitar I
                   
e|------------------------------------------|
B|------------------------------------------|
G|---7-7-7-7-7-7-7-7-6-6-6-6-6-6-6-6--------|
D|---0-0-0-0-0-0-0-0-4-4-4-4-4-4-4-4--------|
A|---0-0-0-0-0-0-0-0-4-4-4-4-4-4-4-4--------|
D|---0-0-0-0-0-0-0-0-4-4-4-4-4-4-4-4--------|



   Guitar II
	
e|------------------------------------------|
B|------------------------------------------|
G|-----7-7--7----7-----6-6--6----6\---------|
D|-----5-5-------------4-4------------------|
A|-----5-5--5----5-----4-4--4----4\---------|
D|------------------------------------------|
            .    .          .    .

   VERSE 1:

   One question,        what can't be done?
    Guitar I
e|----------------------------------------|
B|----------------------------------------|
G|----------------------------------------|
D|------- 4-4-5-5-------7-7--5-5----------|
A|--2-2-2---------5-5-5-----------5--5----|
D|--2-2-2---------5-5-5-------------------|
    PM Throughout

    GUiTAR II
e|----------------------------------------|
B|----------------------------------------|
G|--4-4------------7-7-----------7--------|
D|--2-2------------5-5-----------5--------|
A|--2-2------------5-5-----------5--------|
D|--2-2------------5-5-----------5--------|
    ^ ^		   ^ ^	         ^
      .		     .



   You tear me down with the same thing

    Guitar II(with delay)(notes in parentheses produced by delay)
e|----------------------------------------|
B|----------------------------------------|
G|----7-(7)--(7)--(7)--6--(6)--(6)--(6)---|
D|----7-(7)--(7)--(7)--7--(7)--(7)--(7)---|
A|----------------------------------------|
D|----------------------------------------|
      .  .    .    .   .   .    .    .

  There's nothing, the end, it's begun
   Guitar I
e|----------------------------------------|
B|----------------------------------------|
G|----------------------------------------|
D|------- 4-4-5-5-------7-7--5-5----------|
A|--2-2-2---------5-5-5----------5--5-----|
D|--2-2-2---------5-5-5-------------------|
    PM Throughout


 GUiTAR II
e|----------------------------------------|
B|----------------------------------------|
G|--4-4------------7-7-----------7--------|
D|--2-2------------5-5-----------5--------|
A|--2-2------------5-5-----------5--------|
D|--2-2------------5-5-----------5--------|
    ^ ^		   ^ ^	         ^
      .		     .


   What   can you do       when it all drains
    Guitar II(with delay)

e|----------------------------------------|
B|----------------------------------------|
G|----7-(7)--(7)--(7)--6--(6)--(6)--(6)---|
D|----7-(7)--(7)--(7)--7--(7)--(7)--(7)---|
A|----------------------------------------|
D|----------------------------------------|
      .  .    .    .   .   .    .    .



PRe-chorus:

   (Down)       There you go, always
    Guitar I
e|------------------------------------|
B|------------------------------------|
G|--6---6---6---6---7---7---7---7-----|
D|----4---4---4---4---5---5---5---5---|
A|------------------------------------|
D|------------------------------------|

   GUitar II
e|------------------------------------|
B|------------------------------------|
G|--6--6--6---6---6---7--7--7--7---7--|
D|--4--4--4---4-4-4---5--5--5--5-5-5--|
A|--4--4--4---4-4-4---5--5--5--5-5-5--|
D|------------------------------------|
  PM|--------|^|-|^  |--------|^|-|^        


  See       ``if   i   care   (fading)
   Guitar I
e|------------------------------------|
B|------------------------------------|
G|--9---9---9---9----7----7----7------|
D|----7---7---7---7----5----5-----5---|
A|------------------------------------|
D|------------------------------------|

   GUitar II
e|------------------------------------|
B|------------------------------------|
G|--9--9--9---9---9---7--7--7--7---7--|
D|--7--7--7---7-7-7---5--5--5--5-5-5--|
A|--7--7--7---7-7-7---5--5--5--5-5-5--|
D|------------------------------------|
  PM|--------|^|-|^  |--------|^|-|^          


  (Down) don't you know where I'll be?

  Guitar I
e|------------------------------------|
B|------------------------------------|
G|--6---6---6---6---7---7---7---7-----|
D|----4---4---4---4---5---5---5---5---|
A|------------------------------------|
D|------------------------------------|

  GUitar II
   
e|-------------------------------------|
B|-------------------------------------|
G|--6--6--6---7---6h7-7--7--7---9---7p9|
D|--4--4------4-4-4---5--5------5-5-5--|
A|--4--4------4-4-4---5--5------5-5-5--|
D|-------------------------------------|
  PM      ^   ^   ^         ^   ^   ^  



   'Cause I'm here,        by my own
   Guitar III(harmonics=*)
e|-------------------------------------|
B|-------------------------------------|
G|-(9)---------------------------7*----|
D|-(5)---------------------------------|
A|-(5)---------------------9*-7*-------|
D|-------------------------------------|

FIRST Chorus:

     Wait       -ing,      when I'm 
    
e|------------------------------------------|
B|------------------------------------------|
G|---7-7-7-7-7-7-7-7-6-6-6-6-6-6-6-6--------|
D|---0-0-0-0-0-0-0-0-4-4-4-4-4-4-4-4--------|
A|---0-0-0-0-0-0-0-0-4-4-4-4-4-4-4-4--------|
D|---0-0-0-0-0-0-0-0-4-4-4-4-4-4-4-4--------|


     wait       -ing
     
e|------------------------------------------|
B|------------------------------------------|
G|---9-9-9-9-9-9-9-9-6-6-6-6-6-6-6-6--------|
D|---7-7-7-7-7-7-7-7-4-4-4-4-4-4-4-4--------|
A|---7-7-7-7-7-7-7-7-4-4-4-4-4-4-4-4--------|
D|---7-7-7-7-7-7-7-7-4-4-4-4-4-4-4-4--------|

     I've been here before
     
e|------------------------------------------|
B|------------------------------------------|
G|---7-7-7-7-7-7-7-7-9-9-9-9-9-9-9-9--------|
D|---5-5-5-5-5-5-5-5-7-7-7-7-7-7-7-7--------|
A|---5-5-5-5-5-5-5-5-7-7-7-7-7-7-7-7--------|
D|---5-5-5-5-5-5-5-5-7-7-7-7-7-7-7-7--------|

And I don't care where I'm going So I'll stay

                   
e|------------------------------------------|
B|------------------------------------------|
G|---7-7-7-7-7-7-7-7-7-7-7-7-7-7-7-7--------|
D|---0-0-0-0-0-0-0-0-0-0-0-0-0-0-0-0--------|
A|---0-0-0-0-0-0-0-0-0-0-0-0-0-0-0-0--------|
D|---0-0-0-0-0-0-0-0-0-0-0-0-0-0-0-0--------|



HOOK 1:(intro)
   Guitar I
   
e|------------------------------------------|
B|------------------------------------------|
G|--4-4--4---4----4--7-7--7--7----7\--------|
D|--2-2--2---2----2--5-5--5--5----5\--------|
A|--2-2--2---2----2--5-5--5--5----5\--------|
D|--2-2--2---2----2--5-5--5--5----5\--------|
    ^ ^	     .    .  ^ ^  	       
      .		       .

   Guitar II
         
e|------------------------------------------|
B|------------------------------------------|
G|-------7---7----7-------7--7----7\--------|
D|------------------------------------------|
A|-------5---5----5-------5--5----5\--------|
D|------------------------------------------|
             .    .          .    .







   Verse 2:
    When you walk, don't leave a note
    Guitar I
    
e|----------------------------------------|
B|----------------------------------------|
G|----------------------------------------|
D|------- 4-4-5-5-------7-7--5-5----------|
A|--2-2-2---------5-5-5----------5--5-----|
D|--2-2-2---------5-5-5-------------------|
    PM Throughout


    GUiTAR II
    
e|----------------------------------------|
B|----------------------------------------|
G|--4-4------------7-7-----------7--------|
D|--2-2------------5-5-----------5--------|
A|--2-2------------5-5-----------5--------|
D|--2-2------------5-5-----------5--------|
    ^ ^		   ^ ^	         ^
      .		     .

   Just put your hands on the back door
e|----------------------------------------|
B|----------------------------------------|
G|----7-(7)--(7)--(7)--6--(6)--(6)--(6)---|
D|----7-(7)--(7)--(7)--7--(7)--(7)--(7)---|
A|----------------------------------------|
D|----------------------------------------|
      .  .    .    .   .   .    .    .

    When you talk, it's just a joke
    Guitar I
e|----------------------------------------|
B|----------------------------------------|
G|----------------------------------------|
D|------- 4-4-5-5-------7-7--5-5----------|
A|--2-2-2---------5-5-5----------5--5-----|
D|--2-2-2---------5-5-5-------------------|
    PM Throughout


    GUiTAR II
e|----------------------------------------|
B|----------------------------------------|
G|--4-4------------7-7-----------7--------|
D|--2-2------------5-5-----------5--------|
A|--2-2------------5-5-----------5--------|
D|--2-2------------5-5-----------5--------|
    ^ ^		   ^ ^	         ^
      .		     .

    Just know, I can't take it anymore
e|----------------------------------------|
B|----------------------------------------|
G|----7-(7)--(7)--(7)--6--(6)--(6)--(6)---|
D|----7-(7)--(7)--(7)--7--(7)--(7)--(7)---|
A|----------------------------------------|
D|----------------------------------------|
      .  .    .    .   .   .    .    .







PRe-chorus:

   (Down)       There you go, always
    Guitar I
e|------------------------------------|
B|------------------------------------|
G|--6---6---6---6---7---7---7---7-----|
D|----4---4---4---4---5---5---5---5---|
A|------------------------------------|
D|------------------------------------|

   GUitar II
e|------------------------------------|
B|------------------------------------|
G|--6--6--6---6---6---7--7--7--7---7--|
D|--4--4--4---4-4-4---5--5--5--5-5-5--|
A|--4--4--4---4-4-4---5--5--5--5-5-5--|
D|------------------------------------|
  PM|--------|^|-|^  |--------|^|-|^        


  See       ``if   i   care   (fading)
   Guitar I
e|------------------------------------|
B|------------------------------------|
G|--9---9---9---9----7----7----7------|
D|----7---7---7---7----5----5-----5---|
A|------------------------------------|
D|------------------------------------|

   GUitar II
e|------------------------------------|
B|------------------------------------|
G|--9--9--9---9---9---7--7--7--7---7--|
D|--7--7--7---7-7-7---5--5--5--5-5-5--|
A|--7--7--7---7-7-7---5--5--5--5-5-5--|
D|------------------------------------|
  PM|--------|^|-|^  |--------|^|-|^          


  (Down) don't you know where I'll be?

  Guitar I
e|------------------------------------|
B|------------------------------------|
G|--6---6---6---6---7---7---7---7-----|
D|----4---4---4---4---5---5---5---5---|
A|------------------------------------|
D|------------------------------------|

  GUitar II
e|-------------------------------------|
B|-------------------------------------|
G|--6--6--6---7---6h7-7--7--7---9---7p9|
D|--4--4------4-4-4---5--5------5-5-5--|
A|--4--4------4-4-4---5--5------5-5-5--|
D|-------------------------------------|
  PM      ^   ^   ^         ^   ^   ^  



   'Cause I'm here,        by my own
   Guitar III(harmonics=*)
e|-------------------------------------|
B|-------------------------------------|
G|-(9)---------------------------7*----|
D|-(5)---------------------------------|
A|-(5)---------------------9*-7*-------|
D|-------------------------------------|


Back to Chorus:
SECOND Chorus:

     Wait       -ing,      when I'm 
     
e|------------------------------------------|
B|------------------------------------------|
G|---7-7-7-7-7-7-7-7-6-6-6-6-6-6-6-6--------|
D|---0-0-0-0-0-0-0-0-4-4-4-4-4-4-4-4--------|
A|---0-0-0-0-0-0-0-0-4-4-4-4-4-4-4-4--------|
D|---0-0-0-0-0-0-0-0-4-4-4-4-4-4-4-4--------|


     wait       -ing        (DOn't You know?)
     
e|------------------------------------------|
B|------------------------------------------|
G|---9-9-9-9-9-9-9-9-6-6-6-6-6-6-6-6--------|
D|---7-7-7-7-7-7-7-7-4-4-4-4-4-4-4-4--------|
A|---7-7-7-7-7-7-7-7-4-4-4-4-4-4-4-4--------|
D|---7-7-7-7-7-7-7-7-4-4-4-4-4-4-4-4--------|

 I'll Tell you once more
     
e|------------------------------------------|
B|------------------------------------------|
G|---7-7-7-7-7-7-7-7-9-9-9-9-9-9-9-9--------|
D|---5-5-5-5-5-5-5-5-7-7-7-7-7-7-7-7--------|
A|---5-5-5-5-5-5-5-5-7-7-7-7-7-7-7-7--------|
D|---5-5-5-5-5-5-5-5-7-7-7-7-7-7-7-7--------|

And I don't care where I'm going So I'll be
That as long as you're goneThen I'll stay

                   
e|------------------------------------------|
B|------------------------------------------|
G|---7-7-7-7-7-7-7-7-7-7-7-7-7-7-7-7--------|
D|---0-0-0-0-0-0-0-0-0-0-0-0-0-0-0-0--------|
A|---0-0-0-0-0-0-0-0-0-0-0-0-0-0-0-0--------|
D|---0-0-0-0-0-0-0-0-0-0-0-0-0-0-0-0--------|


    Wait       -ing,      when I'm 
     
e|------------------------------------------|
B|------------------------------------------|
G|---7-7-7-7-7-7-7-7-6-6-6-6-6-6-6-6--------|
D|---0-0-0-0-0-0-0-0-4-4-4-4-4-4-4-4--------|
A|---0-0-0-0-0-0-0-0-4-4-4-4-4-4-4-4--------|
D|---0-0-0-0-0-0-0-0-4-4-4-4-4-4-4-4--------|


     wait       -ing        (DOn't You know?)
     
e|------------------------------------------|
B|------------------------------------------|
G|---9-9-9-9-9-9-9-9-6-6-6-6-6-6-6-6--------|
D|---7-7-7-7-7-7-7-7-4-4-4-4-4-4-4-4--------|
A|---7-7-7-7-7-7-7-7-4-4-4-4-4-4-4-4--------|
D|---7-7-7-7-7-7-7-7-4-4-4-4-4-4-4-4--------|


     I'll Tell you once more
     
e|------------------------------------------|
B|------------------------------------------|
G|---7-7-7-7-7-7-7-7-9-9-9-9-9-9-9-9--------|
D|---5-5-5-5-5-5-5-5-7-7-7-7-7-7-7-7--------|
A|---5-5-5-5-5-5-5-5-7-7-7-7-7-7-7-7--------|
D|---5-5-5-5-5-5-5-5-7-7-7-7-7-7-7-7--------|

That as long as you're gone     Then I'll stay

                   
e|------------------------------------------|
B|------------------------------------------|
G|---7-7-7-7-7-7-7-7-7-7-7-7-7-7-7-7--------|
D|---0-0-0-0-0-0-0-0-0-0-0-0-0-0-0-0--------|
A|---0-0-0-0-0-0-0-0-0-0-0-0-0-0-0-0--------|
D|---0-0-0-0-0-0-0-0-0-0-0-0-0-0-0-0--------|
Bridge:

   Outside        
    Guitar I
    
e|------------------------------------|
B|------------------------------------|
G|--6---6---6---6---7---7---7---7-----|
D|----4---4---4---4---5---5---5---5---|
A|------------------------------------|
D|------------------------------------|


  there's no place I can hide
e|------------------------------------|
B|------------------------------------|
G|--6---6---6---6---7---7---7---7-----|
D|----4---4---4---4---5---5---5---5---|
A|------------------------------------|
D|------------------------------------|

  And your down     time
e|------------------------------------|
B|------------------------------------|
G|--6---6---6---6---7---7---7---7-----|
D|----4---4---4---4---5---5---5---5---|
A|------------------------------------|
D|------------------------------------|

  Is anything but mine
e|------------------------------------|
B|------------------------------------|
G|--6---6---6---6---7---7---7---7-----|
D|----4---4---4---4---5---5---5---5---|
A|------------------------------------|
D|------------------------------------|

  When-the       
    GUiTAR II Stabs these two chords now
    
e|----------------|
B|----------------|
G|--9-7-----------|
D|--7-5-----------|
A|--7-5-----------|
D|--7-5-----------|
    ^ ^		  
     		    

      winds rise
  
e|------------------------------------|
B|------------------------------------|
G|--6---6---6---6---7---7---7---7-----|
D|----4---4---4---4---5---5---5---5---|
A|------------------------------------|
D|------------------------------------|


  This   storm   won't   subside
e|------------------------------------|
B|------------------------------------|
G|--6---6---6---6---7---7---7---7-----|
D|----4---4---4---4---5---5---5---5---|
A|------------------------------------|
D|------------------------------------|

  You'll be outside
e|------------------------------------|
B|------------------------------------|
G|--6---6---6---6---7---7---7---7-----|
D|----4---4---4---4---5---5---5---5---|
A|------------------------------------|
D|------------------------------------|

  I'm in here and I'll guard 
e|---------------\\\\\\\\\\pickslide--|
B|------------------------------------|
G|--Drums-----------------------------|
D|------------------------------------|
A|------------------------------------|
D|------------------------------------|


SOLO:
e|--0-2-3~---3~----2~---2-----------0-2|
B|--------------------3---3------------|
G|-------------------------------------|
D|-------------------------------------|
A|-------------------------------------|
D|-------------------------------------|


                     ^half      ^half
e|------3~---3~----2/---------2/-----0-2|
B|----------------------3-------3------|
G|-------------------------------------|
D|-------------------------------------|
A|-------------------------------------|
D|-------------------------------------|

e|------5----5-----3-2-3-2-------------|
B|---------------------------3/5----3--|
G|-------------------------------------|
D|-------------------------------------|
A|-------------------------------------|
D|-------------------------------------|

e|------5---5---5----5---5-----5----9--9-|
B|--------3---3---3----5----5----5-------|
G|-----------------------------------6--6|
D|---------------------------------------|
A|---------------------------------------|
D|---------------------------------------|

e|--10~--------------10^full--10^full--|
B|-------------------------------------|
G|7-----7-7---9h11---------------------|
D|-------------------------------------|
A|-------------------------------------|
D|-------------------------------------|

                               Waiting....
       ^full bend and release to 10th fret
e|--12/-----\10~-----------------------|
B|-------------------------------------|
G|------------------------------(7)----|
D|------------------------------(0)----|
A|------------------------------(0)----|
D|------------------------------(0)----|


WHEN I'M....

THIRD CHORUS(post solo):

     WAITING!
     
e|------------------------------------------|
B|------------------------------------------|
G|---9-9-9-9-9-9-9-9-6-6-6-6-6-6-6-6--------|
D|---7-7-7-7-7-7-7-7-4-4-4-4-4-4-4-4--------|
A|---7-7-7-7-7-7-7-7-4-4-4-4-4-4-4-4--------|
D|---7-7-7-7-7-7-7-7-4-4-4-4-4-4-4-4--------|

 I've been here before
     
e|------------------------------------------|
B|------------------------------------------|
G|---7-7-7-7-7-7-7-7-9-9-9-9-9-9-9-9--------|
D|---5-5-5-5-5-5-5-5-7-7-7-7-7-7-7-7--------|
A|---5-5-5-5-5-5-5-5-7-7-7-7-7-7-7-7--------|
D|---5-5-5-5-5-5-5-5-7-7-7-7-7-7-7-7--------|

And I don't care where I'm going so I'll be(go back to SECOND chorus)

                   
e|------------------------------------------|
B|------------------------------------------|
G|---7-7-7-7-7-7-7-7-7-7-7-7-7-7-7-7--------|
D|---0-0-0-0-0-0-0-0-0-0-0-0-0-0-0-0--------|
A|---0-0-0-0-0-0-0-0-0-0-0-0-0-0-0-0--------|
D|---0-0-0-0-0-0-0-0-0-0-0-0-0-0-0-0--------|

SECOND Chorus:

     Wait       -ing,      when I'm 
     
e|------------------------------------------|
B|------------------------------------------|
G|---7-7-7-7-7-7-7-7-6-6-6-6-6-6-6-6--------|
D|---0-0-0-0-0-0-0-0-4-4-4-4-4-4-4-4--------|
A|---0-0-0-0-0-0-0-0-4-4-4-4-4-4-4-4--------|
D|---0-0-0-0-0-0-0-0-4-4-4-4-4-4-4-4--------|


     wait       -ing        (DOn't You know?)
     
e|------------------------------------------|
B|------------------------------------------|
G|---9-9-9-9-9-9-9-9-6-6-6-6-6-6-6-6--------|
D|---7-7-7-7-7-7-7-7-4-4-4-4-4-4-4-4--------|
A|---7-7-7-7-7-7-7-7-4-4-4-4-4-4-4-4--------|
D|---7-7-7-7-7-7-7-7-4-4-4-4-4-4-4-4--------|

 I'll Tell you once more
     
e|------------------------------------------|
B|------------------------------------------|
G|---7-7-7-7-7-7-7-7-9-9-9-9-9-9-9-9--------|
D|---5-5-5-5-5-5-5-5-7-7-7-7-7-7-7-7--------|
A|---5-5-5-5-5-5-5-5-7-7-7-7-7-7-7-7--------|
D|---5-5-5-5-5-5-5-5-7-7-7-7-7-7-7-7--------|



    
That as long as you're gone     Then I'll stay

                   
e|------------------------------------------|
B|------------------------------------------|
G|---7-7-7-7-7-7-7-7-7-7-7-7-7-7-7-7--------|
D|---0-0-0-0-0-0-0-0-0-0-0-0-0-0-0-0--------|
A|---0-0-0-0-0-0-0-0-0-0-0-0-0-0-0-0--------|
D|---0-0-0-0-0-0-0-0-0-0-0-0-0-0-0-0--------|

   Guitar666\m/
e|-------------------------------------|
B|-------------------------------------|
G|------------------------------(7)----|
D|------------------------------(0)----|
A|------------------------------(0)----|
D|------------------------------(0)----|



Then I'll stay

    DSus    ASus      Dsus   Asus
e|-----------5---------------5-------|
B|-------------3---------------3-----|
G|-----------------2---------------2-|
D|------2------------------2---------|
A|---0------------------0------------|
D|-0------------------0--------------|   

 
Then I'll stay
    DSus    ASus      Dsus   Asus
e|-----------5---------------5-------|
B|-------------3---------------3-----|
G|-----------------2---------------2-|
D|------2------------------2---------|
A|---0------------------0------------|
D|-0------------------0--------------|   


Then I'll stay
    DSus    ASus      Dsus   Asus
e|-----------5---------------5-------|
B|-------------3---------------3-----|
G|-----------------2---------------2-|
D|------2------------------2---------|
A|---0------------------0------------|
D|-0------------------0--------------|   

ANd you'll Go
    DSus    ASus      Dsus   Asus
e|-----------5---------------5-------|
B|-------------3---------------3-----|
G|-----------------2---------------2-|
D|------2------------------2---------|
A|---0------------------0------------|
D|-0------------------0--------------|   



THen I'll Stay
    DSus    ASus      Dsus   Asus
e|-----------5---------------5-------|
B|-------------3---------------3-----|
G|-----------------2---------------2-|
D|------2------------------2---------|
A|---0------------------0------------|
D|-0------------------0--------------|   

Stay
    DSus    ASus      Dsus   Asus
e|-----------5---------------5-------|
B|-------------3---------------3-----|
G|-----------------2---------------2-|
D|------2------------------2---------|
A|---0------------------0------------|
D|-0------------------0--------------|   




    ^
|  /  Half and full bend

| /  slide up
| \  slide down
| h  hammer-on
| p  pull-off
| ~  vibrato
| +  harmonic
| x  Mute note
===============================================================
Tap to rate this tab
# A B C D E F G H I J K L M N O P Q R S T U V W X Y Z