Song name
# A B C D E F G H I J K L M N O P Q R S T U V W X Y Z

All-american Rejects - Kiss Yourself Goodbye tab

                         ALL-AMERICAN REJECTS
                         KISS YOURSELF GOODBYE


standard tuning
EADGBe


guitar 1 palm muted
---------------------------------------|
---------------------------------------|
---13-(x8)-11-(x8)-9-(x8)-11-(x8)------|
---13------11------9------11-----------|x4
---------------------------------------|
---------------------------------------|

guitar 2
-----------------------------------|
-----------------------------------|
-----------------------------------|
-----------------------------4-6---|X2
-----------------------------4-6---|
-----------------------------2-4---|

chorus
----------------------------------|
----------------------------------|
----------------6------9----------|
--6------9------6-(x8)-9-(x8)-----|x2
--6-(x8)-9-(x8)-4------7----------|
--4------7------------------------|

-----------------------------------------------------|
-----------------------------------------------------|
--11/13-x-11/13-x-11-x-11--9-9--9-8-9--9-8-x-8-------|
--11/13-x-11/13-x-11-x-11--9-9--9-8-9--9-8-x-8--4-6--|
------------------------------------------------4-6--|
------------------------------------------------2-4--|

chorus
----------------------------------|
----------------------------------|
----------------6------9----------|
--6------9------6-(x8)-9-(x8)-----|x2
--6-(x8)-9-(x8)-4------7----------|
--4------7------------------------|

solo
--------------------------------------------------12---------------|
----------------------------------------------12b----12br-10-12----|
----------------------------------------------------------------11-|
-------------------------9/11-11/13-13/14--------------------------|
-------6-7-9-9b-9b-9b----------------------------------------------|
---7-9-------------------------------------------------------------|


thats pretty much it
peace
Tap to rate this tab
# A B C D E F G H I J K L M N O P Q R S T U V W X Y Z