Song name
# A B C D E F G H I J K L M N O P Q R S T U V W X Y Z

All-american Rejects - Strait Jacket Feeling tab

e|----------------|
B|--0h2----5--4---|
G|----------------|
D|----------------|
A|----------------|
E|----------------|

e|----------------0------|
B|-0---2-----------------|
G|----------2------------|
D|-----------------------|
A|-----------------------|
E|-----------------------|


Pretty simple

dxcdfdfcv@yahoo.com
Tap to rate this tab
# A B C D E F G H I J K L M N O P Q R S T U V W X Y Z