Song name
# A B C D E F G H I J K L M N O P Q R S T U V W X Y Z

All-american Rejects - Im On The Football Team tab

Artist: All-american Rejects
Title: I'm on the football team
This is a great song, i cant believe no-one has tabbed it yet

I havn't seen it live, so a few of the lead and rhythm parts might have to be swapped.
If i wasn't sure which guitar was playing, i put it in both

Key:
~=hold note
*=palm mute

Lead Guitar
Intro
e|----------------------------------------------|
B|----------------------------------------------|
G|----------------------------------------------|
D|--------20-0000-------------------------------|   x4
A|---2--23--------0023322---3322000-------------|
E|(3)-3------------------333--------------------|
()= don't play third time

e|-----|
B|-----|
G|-----|
D|--5--|
A|--5--|
E|--3--|

Verse 1
e|----------------------------------------------|
B|----------------------------------------------|
G|-------------------5-555555-7-777777----------|
D|-5-555555-2-222222-5-555555-7-777777----------|   x2
A|-5-555555-2-222222-3-333333-5-555555----------|
E|-3-333333-0-000000----------------------------|
     ******   ******   ******   ******

Pre-Chorus
e|----------------------------------------------|
B|----------------------------------------------|
G|-5~--7~--5-5-5-5-5-5-5-5-7-7-7-7-55-----------|
D|-5~--7~--5-5-5-5-5-5-5-5-7-7-7-7-55-----------|
A|-3~--5~--3-3-3-3-3-3-3-3-5-5-5-5-33-----------|
E|----------------------------------------------|

Chorus
e|----------------------------------------------|
B|----------------------------------------------|
G|-----------5-555555-7-777777-5-555555---------|
D|-5-555555--5-555555-7-777777-5-555555---------|   x2
A|-5-555555--3-333333-5-555555-3-333333---------|
E|-3-333333-------------------------------------|

Post-Chorus
e|----------------------------------------------|
B|----------------------------------------------|
G|----------------------------------------------|
D|--------20-0000-------------------------------|   x2
A|---2--23--------0023322---3322000-------------|
E|-3--3------------------333--------------------|

Verse 2
e|----------------------------------------------|
B|----------------------------------------------|
G|-------------------5-555555-7-777777----------|
D|-5-555555-2-222222-5-555555-7-777777----------|   x2
A|-5-555555-2-222222-3-333333-5-555555----------|
E|-3-333333-0-000000----------------------------|
     ******   ******   ******   ******

Verse 2 cont.
e|----------------------------------------------|
B|----------------------------------------------|
G|-------------------5-555555-7-777777----------|
D|-5-555555-2-222222-5-555555-7-777777----------|   x2
A|-5-555555-2-222222-3-333333-5-555555----------|
E|-3-333333-0-000000----------------------------|

Pre-Chorus
e|----------------------------------------------|
B|----------------------------------------------|
G|-5~--7~--5-5-5-5-5-5-5-5-7-7-7-7-55-----------|
D|-5~--7~--5-5-5-5-5-5-5-5-7-7-7-7-55-----------|
A|-3~--5~--3-3-3-3-3-3-3-3-5-5-5-5-33-----------|
E|----------------------------------------------|

Chorus
e|----------------------------------------------|
B|----------------------------------------------|
G|-----------5-555555-7-777777-5-555555---------|
D|-5-555555--5-555555-7-777777-5-555555---------|   x4
A|-5-555555--3-333333-5-555555-3-333333---------|
E|-3-333333-------------------------------------|

Bridge
e|----------------------------------------------|
B|----------------------------------------------|
G|----------------------------------------------|
D|--------42-2222-------------------------------|   x2
A|---4--45--------2245544---5544222-------------|
E|-5--5------------------555--------------------|

e|-----|
B|-----|
G|--2--|
D|--2--|
A|--0--|
E|-----|

Outro
e|----------------------|
B|----------------------|
G|-99999999-77777777----|
D|-99999999-77777777----|
A|-77777777-55555555----|
E|----------------------|

e|----------------------------------------------|
B|----------------------------------------------|
G|-----------7-777777-9-999999-7-777777---------|
D|-7-777777--7-777777-9-999999-7-777777---------|   x2
A|-7-777777--5-555555-7-777777-5-555555---------|
E|-5-555555-------------------------------------|

e|----------------------------------------------|
B|----------------------------------------------|
G|-----------7-777777-9-999999--77-9------------|
D|-7-777777--7-777777-9-999999--77-9-7----------|
A|-7-777777--5-555555-7-777777--55-7-7----------|
E|-5-555555--------------------------5----------|
Rhythm guitar
Play this during lead intro riff second time
e|-----|
B|-----|
G|-----|
D|--5~-|
A|--5~-|
E|--3~-|

During third and forth time
e|----------------------------------------------------|
B|----------------------------------------------------|
G|---------7-7-7-7-12-12-12-12-7-7-7-7----------------|
D|-5-5-5-5-7-7-7-7-12-12-12-12-7-7-7-7----------------|
A|-5-5-5-5-5-5-5-5-10-10-10-10-5-5-5-5----------------|
E|-3-3-3-3--------------------------------------------|

e|-----|
B|-----|
G|-----|
D|--5--|
A|--5--|
E|--3--|

Verse 1
e|----------------------------------------------|
B|----------------------------------------------|
G|-------------------5-555555-7-777777----------|
D|-5-555555-2-222222-5-555555-7-777777----------|   x2
A|-5-555555-2-222222-3-333333-5-555555----------|
E|-3-333333-0-000000----------------------------|
     ******   ******   ******   ******

Pre-Chorus
e|----------------------------------------------|
B|----------------------------------------------|
G|-5~--7~--5-5-5-5-5-5-5-5-7-7-7-7-55-----------|
D|-5~--7~--5-5-5-5-5-5-5-5-7-7-7-7-55-----------|
A|-3~--5~--3-3-3-3-3-3-3-3-5-5-5-5-33-----------|
E|----------------------------------------------|

Chorus
e|----------------------------------------------|
B|----------------------------------------------|
G|-----------5-555555-7-777777-5-555555---------|
D|-5-555555--5-555555-7-777777-5-555555---------|   x2
A|-5-555555--3-333333-5-555555-3-333333---------|
E|-3-333333-------------------------------------|

Post-Chorus
e|----------------------------------------------------|
B|----------------------------------------------------|
G|---------7-7-7-7-12-12-12-12-7-7-7-7----------------|
D|-5-5-5-5-7-7-7-7-12-12-12-12-7-7-7-7----------------|   x2
A|-5-5-5-5-5-5-5-5-10-10-10-10-5-5-5-5----------------|
E|-3-3-3-3--------------------------------------------|

Verse 2
e|----------------------------------------------|
B|----------------------------------------------|
G|-------------------5-555555-7-777777----------|
D|-5-555555-2-222222-5-555555-7-777777----------|   x2
A|-5-555555-2-222222-3-333333-5-555555----------|
E|-3-333333-0-000000----------------------------|
     ******   ******   ******   ******

Verse 2 cont.
e|----------------------------------------------|
B|----------------------------------------------|
G|-------------------5-555555-7-777777----------|
D|-5-555555-2-222222-5-555555-7-777777----------|   x2
A|-5-555555-2-222222-3-333333-5-555555----------|
E|-3-333333-0-000000----------------------------|

Pre-Chorus
e|----------------------------------------------|
B|----------------------------------------------|
G|-5~--7~--5-5-5-5-5-5-5-5-7-7-7-7-55-----------|
D|-5~--7~--5-5-5-5-5-5-5-5-7-7-7-7-55-----------|
A|-3~--5~--3-3-3-3-3-3-3-3-5-5-5-5-33-----------|
E|----------------------------------------------|

Chorus
e|----------------------------------------------|
B|----------------------------------------------|
G|-----------5-555555-7-777777-5-555555---------|
D|-5-555555--5-555555-7-777777-5-555555---------|   x4
A|-5-555555--3-333333-5-555555-3-333333---------|
E|-3-333333-------------------------------------|

Bridge
e|--------------------------------------|
B|--------------------5~---3~---5~------|
G|-2---55---77---2~---4~---2~---4~---2--|
D|-2---55---77---2~---2~---0~---2~---2--|
A|-0---33---55---0~------------------0--|
E|--------------------------------------|

Outro
e|----------------------|
B|----------------------|
G|-99999999-77777777----|
D|-99999999-77777777----|
A|-77777777-55555555----|
E|----------------------|

e|----------------------------------------------|
B|----------------------------------------------|
G|-----------7-777777-9-999999-7-777777---------|
D|-7-777777--7-777777-9-999999-7-777777---------|   x2
A|-7-777777--5-555555-7-777777-5-555555---------|
E|-5-555555-------------------------------------|

e|----------------------------------------------|
B|----------------------------------------------|
G|-----------7-777777-9-999999--77-9------------|
D|-7-777777--7-777777-9-999999--77-9-7----------|
A|-7-777777--5-555555-7-777777--55-7-7----------|
E|-5-555555--------------------------5----------|

That's it. Im pretty sure i got it all, if not, tell me
Tap to rate this tab
# A B C D E F G H I J K L M N O P Q R S T U V W X Y Z